Cifras e Tablaturas
Maná

Maná

Labios compartidos (guitarra)

Cifras Cancelar Versão de Impressão Print

Maná - Labios compartidos (guitarra)

Tom:

  			Versão Guitarra 

G||------|------|------|17-15-|------|------|------|------| 
D||------|------|15--17|------|------|------|------|------| (24 seg) 
A||-15-17|--18--|------|------|------|------|------|------| 
E||------|------|------|------|------|------|------|------| 


G||------|------|------|------|------|------|------|------| 
D||------|------|-8--8-|------|------|------|------|------| 
A||3--3--|-6--6-|------|-8--8-|------|------|------|------|   4X 
E||------|------|------|------|------|------|------|------| 



G||------|------|------|------|------|------|------|------| 
D||------|------|------|-8--8-|------|------|------|------| 
A||------|------|-6--6-|------|------|------|------|-1--1-| (otra ve...) 
E||-3--3-|-4--4-|------|------|-3--3-|-4--4-|-1--1-|------| 


G||------|------|------|------|------|------|------|------| 
D||------|------|------|------|------|------|------|------| 2X  (labios compartidos) 
A||------|------|-6--6-|------|------|------|------|------| 
E||-4--4-|-6--6-|------|-8--8-|------|------|------|------| 

G||------|------|------|------|------|------|------|------| 
D||------|------|------|------|------|------|------|------| (o amor, o amor,) 
A||------|------|------|------|------|------|------|------| 
E||-4--4-|-6--6-|------|------|------|------|------|------| 
    	
fixar
fixar inscrever-se

enviado porenviado por: E.Smith
cifra enviadaCorrigida por: sem correções
logo top cifrasComente
ico música do artistaMúsicas deste artista
ico curtiuCurtiu?
ico destaqueDestaque
Petaxxon Comunicação Online

Cifras.com.br - Melhor e mais completo site de cifras e tablaturas do Brasil Mais de 1 milhão de acordes de músicas cadastradas desde 2003
As informações contidas no nosso site são colaborações de seus usuários e podem conter erros, sendo assim, não nos responsabilizamos sobre nenhuma destas.

close
menos
mais
close
Cor dos acordes:

Cor da letra:

close
Alinhar acordes a direita Alinhar acordes a esquerda Alinhar acordes em baixo Alinhar acordes no topo
close
  Mostrar todos os acordes Esconder acordes muito fáceis Esconder acordes fáceis Esconder acordes intermediários
redimensionar
glossário