Cifras e Tablaturas
Manchester Orchestra

Manchester Orchestra

The Sunshine

Cifras Cancelar Versão de Impressão
cifras

Manchester Orchestra - The Sunshine

fixar na tela  
Exibindo: vídeo-aula ver clipes redimensionar
  
7 
Capo 7 


Riff A 
Eb|--------------0--------------------------0-----------------| 
Bb|--------3-----------3--------------3-----------3-----------| 
Gb|---2------2-----2-----2--------2-----2-----2-----2---------| 
Db|-0---0------0-----0-----0----0---0-----0-----0-----0-------| 
Ab|-----------------------------------------------------------| 
Eb|-----------------------------------------------------------| 

Riff B  
Eb|------------------------------| 
Bb|--------1-----1-----1---------| 
Gb|---0------0-----0-----0-------| 
Db|------------------------------| 
Ab|-3---3------3-----3-----3-----| 
Eb|------------------------------| 

Riff C  
Eb|------------------------------| 
Bb|--------1-----1-----1---------| 
Gb|---0------0-----0-----0-------| 
Db|------------------3-----2-----| 
Ab|-3---3------3-----------------| 
Eb|------------------------------| 

(Little lead riff at about 0:11) 
Eb|--------1---------------| 
Bb|------3-------3---------| 
Gb|--0h2-----0h2-----------| 
Db|------------------------| 
Ab|------------------------| 
Eb|------------------------| 

Outro lead gutiar  
Riff A  
Eb|---------------------------------------------| the 5s could also be 4b5, 
Bb|-1/3-3-3-5-5-5--3---1/3-3-3-5-5-5-3----------| I can't quite tell 
Gb|---------------------------------------------| 
Db|---------------------------------------------| 
Ab|---------------------------------------------| 
Eb|---------------------------------------------| 

Outro lead gutiar  
Riff B  
Eb|-----------------------| 
Bb|--1v-1v-6v-5v----------| 
Gb|-----------------------| 
Db|-----------------------| 
Ab|-----------------------| 
Eb|-----------------------| 

Outro lead gutiar  
Riff A  
(not relative to capo) 
Eb|-------------------------------------------------------| 
Bb|-8/10-10-10-12-12-12--10---8/10-10-10-12-12-12-10------| 
Gb|-------------------------------------------------------| 
Db|-------------------------------------------------------| 
Ab|-------------------------------------------------------| 
Eb|-------------------------------------------------------| 

Outro lead gutiar  
Riff B and Riff C  
(not relative to capo) 
Eb|-------------------------| 
Bb|--8v-8v-13v-12v----------| 
Gb|-------------------------| 
Db|-------------------------| 
Ab|-------------------------| 
Eb|-------------------------|  
  

top 5 | manchester orchestra
top rock alternativo
Outras músicas do artista letras do(a) Manchester Orchestra
4.
Deer
Top cifras »Top artistas »
Petaxxon Comunicação Online
Cifras.com.br - Melhor e mais completo site de cifras e tablaturas do Brasil
Mais de 1 milhão de acordes de músicas cadastradas desde 2003
As informações contidas no nosso site são colaborações de seus usuários e podem conter erros, sendo assim, não nos responsabilizamos sobre nenhuma destas.
close
menos
mais
close
Cor dos acordes:

Cor da letra:

 

save
close
close
 
redimensionar