Cifras e Tablaturas
Maskavo

Maskavo

Um Anjo do Céu

Cifras Cancelar Versão de Impressão

Maskavo - Um Anjo do Céu

Tom: B

  			Intro:
(B  F#  E  B)

e|-2-----------|-2-----------|
B|--0-4-0-4-2--|---0-4-0-4-0-|
G|-------------|-------------|  4 vezes.
D|-------------|-------------|
A|-------------|-------------|
E|-------------|-------------|

B
Um anjo do céu Que trouxe pra mim
          C#m
É a mais bonita
          E      C#m 
A jóia perfeita
               B
Que é pra eu cuidar
Que é pra eu amar
          C#m
Gota cristalina
             E     F#
Tem toda inocência

Refrão {

 B           F#
Bem, Óh meu bem
           E
Não chore não
                B
Vou cantar pra você
B
Um anjo do céu Que me escolheu
             C#m
Serei o seu porto
               E    C#m
Guardião da pureza
              B
Que é pra eu cuidar
Que é pra eu amar
           C#m
Gota cristalina
             E     F#
Tem toda inocência

 } Refrão

 B          F#
Bem, Óh meu bem
           E 
Não chore não (3X)
                 B
Vou cantar pra você
 B          F#
Bem, Óh meu bem
           E 
Não chore não......
                 B   F# E B (2X)
Vou cantar pra você

REPETE REFRÃO 4X E FIM.

SOLO

SOLO

e|-----------------------------------------
B|-----------------------------------------
G|-----4-----4----------4---4--4h6-4-------
D|-4h6---6-4---6-4--4h6---6----------6-4-6-
G|-----------------------------------------
E|-----------------------------------------

   ---------------------------------------|
   ----------------------------------7h9--|
   -4---4h6-4-6-6h8-6-----4-6h8-6-8-------|
   ---6---------------4h6-----------------|
   ---------------------------------------|
   ---------------------------------------|
    	
fixar
fixar inscrever-se

enviado porenviado por: anônimo
cifra enviadaCorrigida por: sem correções
logo top cifrasComente
ico música do artistaMúsicas deste artista
ico curtiuCurtiu?
ico destaqueDestaque
Petaxxon Comunicação Online

Cifras.com.br - Melhor e mais completo site de cifras e tablaturas do Brasil Mais de 1 milhão de acordes de músicas cadastradas desde 2003
As informações contidas no nosso site são colaborações de seus usuários e podem conter erros, sendo assim, não nos responsabilizamos sobre nenhuma destas.

close
menos
mais
close
Cor dos acordes:

Cor da letra:

close
Alinhar acordes a direita Alinhar acordes a esquerda Alinhar acordes em baixo Alinhar acordes no topo
close
  Mostrar todos os acordes Esconder acordes muito fáceis Esconder acordes fáceis Esconder acordes intermediários
redimensionar
glossário