Cifras e Tablaturas
Mastodon

Mastodon

Ancient Kingdom

Cifras Cancelar Versão de Impressão
cifras

Mastodon - Ancient Kingdom

fixar na tela  
Exibindo: vídeo-aula ver clipes redimensionar
  
Intro 
D||------------------|-----------------|---------------|----------------|| 
A||---------8-----8--|--------8-----8--|-------7----7--|-------7----7---|| 
F||---------7-----7--|--------7-----7--|-------6----6--|-------6----6---|| 
C||---------9-----9--|--------9-----9--|-------8----8--|-------8----8---|| x2 
G||--------10----10--|-------10----10--|-------9----9--|-------9----9---|| 
D||--0--0------------|-0--0------------|-0--0----------|-0--0-----------|| 


Verse 
D||------------------|-----------------|-----------------|------------------| 
A||------------------|-----------------|-----------------|------------------| 
F||------------------|-----------------|-----------------|------------------| 
C||------------------|-----------------|-----------------|------------------| 
G||--------------9-9-|-9-9-9-9-9-9-9-9-|-------------9-9-|-9-9-9-9-9-9-9-9--| 
D||--0-0-0-8-8-8-----|-----------------|-0-0-0-8-8-8-----|------------------| 


D|-------------------|-------------------------|-------------------|--------------------------|| 
A|-------------------|-------------------------|-------------------|--------------------------|| 
F|-------------------|-------------------------|-------------------|--------------------------||  
C|-------------------|-------------------------|-------------------|--------------------------|| x4 
G|-------------10-10-|-10-10-10-10-10-10-10-10-|-------------10-10-|-10-10-10-10-10-10-10-10--|| 
D|-0-0-0-7-7-7-------|-------------------------|-0-0-0-7-7-7-------|--------------------------|| 


Pre-Chorus 
D|------------------|------------------|------------------|------------------| 
A|------------------|------------------|------------------|------------------| 
F|-------14\\12-12--|-------14\\12-12--|-------12\\11-11--|-------11//12-9---| 
C|------------------|------------------|------------------|------------------| 
G|-------12\\10-10--|-------12\\10-10--|-------10\\\9--9--|--------9//10-7---| 
D|-0--0-------------|-0--0-------------|-0--0-------------|-0--0-------------| 


D|------------------|------------------|------------------|------------------| 
A|------------------|------------------|------------------|------------------| 
F|-------14\\12-12--|-------14//16-12--|-------12\\11-11--|-------11//12-9---| 
C|------------------|------------------|------------------|------------------| 
G|-------12\\10-10--|-------12//14-10--|-------10\\\9--9--|--------9//10-7---| 
D|-0--0-------------|-0--0-------------|-0--0-------------|-0--0-------------| 


Verse 
D||------------------|-----------------|-----------------|------------------| 
A||------------------|-----------------|-----------------|------------------| 
F||------------------|-----------------|-----------------|------------------| 
C||------------------|-----------------|-----------------|------------------| 
G||--------------9-9-|-9-9-9-9-9-9-9-9-|-------------9-9-|-9-9-9-9-9-9-9-9--| 
D||--0-0-0-8-8-8-----|-----------------|-0-0-0-8-8-8-----|------------------| 


D|-------------------|-------------------------|-------------------|--------------------------|| 
A|-------------------|-------------------------|-------------------|--------------------------|| 
F|-------------------|-------------------------|-------------------|--------------------------||  
C|-------------------|-------------------------|-------------------|--------------------------|| x2 
G|-------------10-10-|-10-10-10-10-10-10-10-10-|-------------10-10-|-10-10-10-10-10-10-10-10--|| 
D|-0-0-0-7-7-7-------|-------------------------|-0-0-0-7-7-7-------|--------------------------|| 


Pre-Chorus 
D|------------------|------------------|------------------|------------------| 
A|------------------|------------------|------------------|------------------| 
F|-------14\\12-12--|-------14\\12-12--|-------12\\11-11--|-------11//12-9---| 
C|------------------|------------------|------------------|------------------| 
G|-------12\\10-10--|-------12\\10-10--|-------10\\\9--9--|--------9//10-7---| 
D|-0--0-------------|-0--0-------------|-0--0-------------|-0--0-------------| 


D|------------------|------------------|------------------|------------------| 
A|------------------|------------------|------------------|------------------| 
F|-------14\\12-12--|-------14//16-12--|-------12\\11-11--|-------11//12-9---| 
C|------------------|------------------|------------------|------------------| 
G|-------12\\10-10--|-------12//14-10--|-------10\\\9--9--|--------9//10-7---| 
D|-0--0-------------|-0--0-------------|-0--0-------------|-0--0-------------| 


Chorus 
    Gtr 2 
D||--------7--------7-|--------7-8---8-7-|--------7--------7-|--------7-8---8-7-| 
A||-8-8-10---8-8-10---|-8-8-10-----8-----|-8-8-10---8-8-10---|-8-8-10-----8-----| 
F||-------------------|------------------|-------------------|------------------| 
C||-------------------|------------------|-------------------|------------------| 
G||-------------------|------------------|-------------------|------------------| 
D||-------------------|------------------|-------------------|------------------| 
  | 
  | Gtr 1 
D||-------------------|------------------|-------------------|------------------| 
A||-------------------|------------------|-------------------|------------------| 
F||-------------------|------------------|-------------------|------------------| 
C||-5-5--5-5-5-5--5-5-|-5-5--5-5-5-5-5-5-|-4-4--4-4-4-4--4-4-|-4-4--4-4-4-4-4-4-| 
G||-5-5--5-5-5-5--5-5-|-5-5--5-5-5-5-5-5-|-5-5--5-5-5-5--5-5-|-5-5--5-5-5-5-5-5-| 
D||-3-3--3-3-3-3--3-3-|-3-3--3-3-3-3-3-3-|-2-2--2-2-2-2--2-2-|-2-2--2-2-2-2-2-2-| 


D|--------7--------7-|--------7-8---8-7-|-10-10----7-10-10----7-|-10-10----7-8---8-7-|| 
A|-8-8-10---8-8-10---|-8-8-10-----8-----|-------10---------10---|-------10-----8-----|| 
F|-------------------|------------------|-----------------------|--------------------|| 
C|-------------------|------------------|-----------------------|--------------------|| 
G|-------------------|------------------|-----------------------|--------------------|| 
D|-------------------|------------------|-----------------------|--------------------|| 
 | 
D|-------------------|------------------|-----------------------|--------------------|| 
A|-------------------|------------------|-----------------------|--------------------|| 
F|-0-0--0-0-0-0--0-0-|-0-0--0-0-0-0-0-0-|--7--7--7-7--7--7--7-7-|--7--7--7-7-7-7-7-7-|| 
C|-2-2--2-2-2-2--2-2-|-2-2--2-2-2-2-2-2-|--7--7--7-7--7--7--7-7-|--7--7--7-7-7-7-7-7-|| x2 
G|-2-2--2-2-2-2--2-2-|-2-2--2-2-2-2-2-2-|--5--5--5-5--5--5--5-5-|--5--5--5-5-5-5-5-5-|| 
D|-0-0--0-0-0-0--0-0-|-0-0--0-0-0-0-0-0-|-----------------------|--------------------|| 


Bridge 
D|------------0---|------------0---|------------0---|------------0----| 
A|----------3---3-|----------3---3-|----------3---3-|----------3---3--| 
F|-------4--------|-------4--------|-------4--------|-------4---------| 
C|----0-----------|----0-----------|----0-----------|----0------------| 
G|-2--------------|-2--------------|-1--------------|-1---------------| 
D|----------------|----------------|----------------|-----------------| 


D|-------------0---|------------0---|------------0---|------------5----| 
A|-----------6---6-|----------6---6-|----------6---6-|----------6---6--| 
F|--------7--------|-------7--------|-------7--------|-------7---------| 
C|-----7-----------|----8-----------|----7-----------|----7------------| 
G|-/5--------------|----------------|-4--------------|-----------------| 
D|-----------------|-6--------------|----------------|-5---------------| 


D|------------0---|------------0---|------------0---|------------0----| 
A|----------3---3-|----------3---3-|----------3---3-|----------3---3--| 
F|-------4--------|-------4--------|-------4--------|-------4---------| 
C|----0-----------|----0-----------|----0-----------|----0------------| 
G|-2--------------|-2--------------|-1--------------|-1---------------| 
D|----------------|----------------|----------------|-----------------| 


D||-------------0---|------------0---|------------0---|------------5----|| 
A||-----------6---6-|----------6---6-|----------6---6-|----------6---6--|| 
F||--------7--------|-------7--------|-------7--------|-------7---------|| 
C||-----7-----------|----8-----------|----7-----------|----7------------|| x2 
G||-/5--------------|----------------|-4--------------|-----------------|| 
D||-----------------|-6--------------|----------------|-5---------------|| 


Solo 
D|------------------|------------------|--------------|--------------------------| 
A|-7----7-----------|-7------7---------|--------------|--------------------------| 
F|-9b11-9b11--------|-9b11---9b11---9--|--------------|--------------------------| 
C|------------------|------------------|-7--7tr9------|-/7----------------7------| 
G|------------------|------------------|--------------|----9-8-7------/9-----\7--| 
D|------------------|------------------|--------------|----------10-7------------| 


D|-----------------------|--------------------| 
A|-----------------------|-------7--8--7h8h10-| 
F|-----------------------|---7-9--------------| 
C|------------7-------7--|-9------------------| 
G|-5----5/7-9---5h7h9----|--------------------| 
D|-----------------------|--------------------| 


D|-------------------------------------------|------------------------------------7h10p7-| 
A|-10p8p7--------7h8h10-10p8p7--------7h8h10-|-10p8p7--------7h8h10-10p8p7---------------| 
F|--------11p9p7---------------11p9p7--------|--------11p9p7---------------11p9p7--------| 
C|-------------------------------------------|-------------------------------------------| 
G|-------------------------------------------|-------------------------------------------| 
D|-------------------------------------------|-------------------------------------------| 


D|-7h10p7----7h10p7----7h10p7-7h10p7----7h10p7----7h10p7-| 
A|--------10--------10---------------10--------10--------| 
F|-------------------------------------------------------| 
C|-------------------------------------------------------| 
G|-------------------------------------------------------| 
D|-------------------------------------------------------| 


D|-7h10p7----7h10p7----7h10p7-7h10p7-10b12-10b12-| 
A|--------10--------10---------------------------| 
F|-----------------------------------------------| 
C|-----------------------------------------------| 
G|-----------------------------------------------| 
D|-----------------------------------------------| 


D|-7h10p7----7--------------------------------|-------------------| 
A|--------10---7h10p7---7---------------------|-------------------| 
F|--------------------9---7h9p7---7-----------|-------------------| 
C|------------------------------9---7h9p7---7-|----------7--9-----| 
G|----------------------------------------9---|-7h9p7-/9-------\7-| 
D|--------------------------------------------|-------------------| 


D|-10----9----7----9----10----9----7----9----|-12----10----12----10----12----10----12----10----| 
A|----10---10---10---10----10---10---10---10-|----12----12----12----12----12----12----12----12-| 
F|-------------------------------------------|-------------------------------------------------| 
C|-------------------------------------------|-------------------------------------------------| 
G|-------------------------------------------|-------------------------------------------------| 
D|-------------------------------------------|-------------------------------------------------| 


D|-15----14----12----14----15----14----12----14----|-19----17----15----17----19----17----17b19---| 
A|----15----15----15----15----15----15----15----15-|----19----19----19----19----19----19---------| 
F|-------------------------------------------------|---------------------------------------------| 
C|-------------------------------------------------|---------------------------------------------| 
G|-------------------------------------------------|---------------------------------------------| 
D|-------------------------------------------------|---------------------------------------------| 


Bridge 
D|------------0---|------------0---|------------0---|------------0----| 
A|----------3---3-|----------3---3-|----------3---3-|----------3---3--| 
F|-------4--------|-------4--------|-------4--------|-------4---------| 
C|----0-----------|----0-----------|----0-----------|----0------------| 
G|-2--------------|-2--------------|-1--------------|-1---------------| 
D|----------------|----------------|----------------|-----------------| 


D|-------------0---|------------0---|------------0---|------------5----| 
A|-----------6---6-|----------6---6-|----------6---6-|----------6---6--| 
F|--------7--------|-------7--------|-------7--------|-------7---------| 
C|-----7-----------|----8-----------|----7-----------|----7------------| 
G|-/5--------------|----------------|-4--------------|-----------------| 
D|-----------------|-6--------------|----------------|-5---------------| 


D|------------0---|------------0---|------------0---|------------0----| 
A|----------3---3-|----------3---3-|----------3---3-|----------3---3--| 
F|-------4--------|-------4--------|-------4--------|-------4---------| 
C|----0-----------|----0-----------|----0-----------|----0------------| 
G|-2--------------|-2--------------|-1--------------|-1---------------| 
D|----------------|----------------|----------------|-----------------| 


D||-------------0---|------------0---|------------0---|------------5----|| 
A||-----------6---6-|----------6---6-|----------6---6-|----------6---6--|| 
F||--------7--------|-------7--------|-------7--------|-------7---------|| 
C||-----7-----------|----8-----------|----7-----------|----7------------|| x2 
G||-/5--------------|----------------|-4--------------|-----------------|| 
D||-----------------|-6--------------|----------------|-5---------------|| 


Verse 
D|------------------|-----------------|-----------------|------------------| 
A|------------------|-----------------|-----------------|------------------| 
F|------------------|-----------------|-----------------|------------------| 
C|------------------|-----------------|-----------------|------------------| 
G|--------------9-9-|-9-9-9-9-9-9-9-9-|-------------9-9-|-9-9-9-9-9-9-9-9--| 
D|--0-0-0-8-8-8-----|-----------------|-0-0-0-8-8-8-----|------------------| 


D|-------------------|-------------------------|-------------------|--------------------------| 
A|-------------------|-------------------------|-------------------|--------------------------| 
F|-------------------|-------------------------|-------------------|--------------------------|  
C|-------------------|-------------------------|-------------------|--------------------------| 
G|-------------10-10-|-10-10-10-10-10-10-10-10-|-------------10-10-|-10-10-10-10-10-10-10-10--| 
D|-0-0-0-7-7-7-------|-------------------------|-0-0-0-7-7-7-------|--------------------------| 


Pre-Chorus 
D|------------------|------------------|------------------|------------------| 
A|------------------|------------------|------------------|------------------| 
F|-------14\\12-12--|-------14\\12-12--|-------12\\11-11--|-------11//12-9---| 
C|------------------|------------------|------------------|------------------| 
G|-------12\\10-10--|-------12\\10-10--|-------10\\\9--9--|--------9//10-7---| 
D|-0--0-------------|-0--0-------------|-0--0-------------|-0--0-------------| 


D|------------------|------------------|------------------|------------------| 
A|------------------|------------------|------------------|------------------| 
F|-------14\\12-12--|-------14//16-12--|-------12\\11-11--|-------11//12-9---| 
C|------------------|------------------|------------------|------------------| 
G|-------12\\10-10--|-------12//14-10--|-------10\\\9--9--|--------9//10-7---| 
D|-0--0-------------|-0--0-------------|-0--0-------------|-0--0-------------| 


Final Chorus 
    Gtr 2 
D||--------7--------7-|--------7-8---8-7-|--------7--------7-|--------7-8---8-7-| 
A||-8-8-10---8-8-10---|-8-8-10-----8-----|-8-8-10---8-8-10---|-8-8-10-----8-----| 
F||-------------------|------------------|-------------------|------------------| 
C||-------------------|------------------|-------------------|------------------| 
G||-------------------|------------------|-------------------|------------------| 
D||-------------------|------------------|-------------------|------------------| 
  | 
  | Gtr 1 
D||-------------------|------------------|-------------------|------------------| 
A||-------------------|------------------|-------------------|------------------| 
F||-------------------|------------------|-------------------|------------------| 
C||-5-5--5-5-5-5--5-5-|-5-5--5-5-5-5-5-5-|-4-4--4-4-4-4--4-4-|-4-4--4-4-4-4-4-4-| 
G||-5-5--5-5-5-5--5-5-|-5-5--5-5-5-5-5-5-|-5-5--5-5-5-5--5-5-|-5-5--5-5-5-5-5-5-| 
D||-3-3--3-3-3-3--3-3-|-3-3--3-3-3-3-3-3-|-2-2--2-2-2-2--2-2-|-2-2--2-2-2-2-2-2-| 


D|--------7--------7-|--------7-8---8-7-|-10-10----7-10-10----7-|-10-10----7-8---8-7-|| 
A|-8-8-10---8-8-10---|-8-8-10-----8-----|-------10---------10---|-------10-----8-----|| 
F|-------------------|------------------|-----------------------|--------------------|| 
C|-------------------|------------------|-----------------------|--------------------|| 
G|-------------------|------------------|-----------------------|--------------------|| 
D|-------------------|------------------|-----------------------|--------------------|| 
 | 
D|-------------------|------------------|-----------------------|--------------------|| 
A|-------------------|------------------|-----------------------|--------------------|| 
F|-0-0--0-0-0-0--0-0-|-0-0--0-0-0-0-0-0-|--7--7--7-7--7--7--7-7-|--7--7--7-7-7-7-7-7-|| 
C|-2-2--2-2-2-2--2-2-|-2-2--2-2-2-2-2-2-|--7--7--7-7--7--7--7-7-|--7--7--7-7-7-7-7-7-|| x4 
G|-2-2--2-2-2-2--2-2-|-2-2--2-2-2-2-2-2-|--5--5--5-5--5--5--5-5-|--5--5--5-5-5-5-5-5-|| 
D|-0-0--0-0-0-0--0-0-|-0-0--0-0-0-0-0-0-|-----------------------|--------------------|| 


D|-------| 
A|-------| 
F|-------| 
C|-5-----| 
G|-5-----| 
D|-3-----| 



***********************************  
|  /  Slide up  
|  \  Slide down  
|  h  Hummer-on  
|  p  Pull-off  
|  +  Harmonic 
|  ~  Vibrato  
|  b  Bend  
|  =  Hold Bend 
|  tr Trill 
| (n) Ghost Note 
*********************************** 
  

top 5 | mastodon
top heavy metal
Outras músicas do artista letras do(a) Mastodon
Top cifras »Top artistas »
Petaxxon Comunicação Online
Cifras.com.br - Melhor e mais completo site de cifras e tablaturas do Brasil
Mais de 1 milhão de acordes de músicas cadastradas desde 2003
As informações contidas no nosso site são colaborações de seus usuários e podem conter erros, sendo assim, não nos responsabilizamos sobre nenhuma destas.
close
menos
mais
close
Cor dos acordes:

Cor da letra:

 

save
close
close
 
redimensionar