Cifras e Tablaturas
Mastodon

Mastodon

Clandestiny

Cifras Cancelar Versão de Impressão
cifras

Mastodon - Clandestiny

fixar na tela  
Exibindo: vídeo-aula ver clipes redimensionar
  
Intro 
D||----------------|-----------------|---------------|-------------2----|| 
A||--------2--3-3--|-3p2-------------|-------2--3-3--|-3p2-----0h2---3--|| 
F||--------0----0--|-----4p2-4/6-4\2-|-------0----0--|-----4p2----------|| 
C||----------------|-----------------|---------------|------------------|| x2 
G||----------------|-----------------|---------------|------------------|| 
A||--0-0-0---------|-----------------|-0-0-0---------|------------------|| 


Verse 
D||----------------|-----------------|---------------|-------------2----|| 
A||--------2--3-3--|-3p2-------------|-------2--3-3--|-3p2-----0h2---3--|| 
F||--------0----0--|-----4p2-4/6-4\2-|-------0----0--|-----4p2----------|| 
C||----------------|-----------------|---------------|------------------|| x2 
G||----------------|-----------------|---------------|------------------|| 
A||--0-0-0---------|-----------------|-0-0-0---------|------------------|| 


Pre-Chorus 
D||------------------|------------------|| 
A||------------------|------------------|| 
F||--9-9-9-------9-9-|-9----------------|| 
C||------------------|------------------|| x2 
G||--7-7-7-------7-7-|-7-----------7----|| 
A||--------8-8-8-----|---8-8-8-5-8---8--|| 


D||------------------|------------------|| 
A||------------------|------------------|| 
F||--4-4-4-------4-4-|-4----------------|| 
C||------------------|------------------|| x2 
G||--2-2-2-------2-2-|-2-----------2----|| 
A||--------3-3-3-----|---3-3-3-0-3---3--|| 


Verse 
D||----------------|-----------------|---------------|-------------2----|| 
A||--------2--3-3--|-3p2-------------|-------2--3-3--|-3p2-----0h2---3--|| 
F||--------0----0--|-----4p2-4/6-4\2-|-------0----0--|-----4p2----------|| 
C||----------------|-----------------|---------------|------------------|| x2 
G||----------------|-----------------|---------------|------------------|| 
A||--0-0-0---------|-----------------|-0-0-0---------|------------------|| 


Pre-Chorus 
D||------------------|------------------|| 
A||------------------|------------------|| 
F||--9-9-9-------9-9-|-9----------------|| 
C||------------------|------------------|| x2 
G||--7-7-7-------7-7-|-7-----------7----|| 
A||--------8-8-8-----|---8-8-8-5-8---8--|| 


D||------------------|------------------|| 
A||------------------|------------------|| 
F||--4-4-4-------4-4-|-4----------------|| 
C||------------------|------------------|| x2 
G||--2-2-2-------2-2-|-2-----------2----|| 
A||--------3-3-3-----|---3-3-3-0-3---3--|| 


Chorus 
D||-----------------|-----------------|-----------------|-----------------| 
A||-----------------|-----------------|-----------------|---------7-7-7-7-| 
F||-4-4-4-4-4-4-4-4-|-4-4-4-4-2-2-2-2-|-7-7-7-7-7-7-7-7-|-7-7-7-7-6-6-6-6-| 
C||-4-4-4-4-4-4-4-4-|-4-4-4-4-2-2-2-2-|-7-7-7-7-7-7-7-7-|-7-7-7-7-4-4-4-4-| 
G||-2-2-2-2-2-2-2-2-|-2-2-2-2-0-0-0-0-|-5-5-5-5-5-5-5-5-|-5-5-5-5---------| 
A||-----------------|-----------------|-----------------|-----------------| 


D|-----------------|-----------------|-----------------|-----------------|| 
A|-8-8-8-8---------|---------7-7-7-7-|-----------------|-----------------|| 
F|-7-7-7-7-2-2-2-2-|-2-2-2-2-6-6-6-6-|-4-4-4-4-4-4-4-4-|-4-4-4-4-2-2-2-2-|| 
C|-5-5-5-5-2-2-2-2-|-2-2-2-2-4-4-4-4-|-4-4-4-4-4-4-4-4-|-4-4-4-4-2-2-2-2-|| x2 
G|---------0-0-0-0-|-0-0-0-0---------|-2-2-2-2-2-2-2-2-|-2-2-2-2-0-0-0-0-|| 
A|-----------------|-----------------|-----------------|-----------------|| 


Clean Bridge 
D||---------------|--------|---------------|--------| 
A||-----------10--|-11-----|-----------10--|-11-----| 
F||---------------|--------|---------------|--------| 
C||-------8-------|--------|-------8-------|--------| 
G||--10-----------|--------|--10-----------|--------| 
A||---------------|--------|---------------|--------| 


D|-------------|-------|-------------|-------|| 
A|----------5--|-6-----|----------5--|-6-----|| 
F|-------------|-------|-------------|-------|| 
C|------7------|-------|------7------|-------|| x2 
G|--5----------|-------|--5----------|-------|| 
A|-------------|-------|-------------|-------|| 


Synth 
D||---------------|---------------|---------------------|-------------------| 
A||---------------|---------------|---------------------|-----------17--18--| 
F||-12------------|-12------12-14-|-15--14-15-17--15-17-|-19--17-19---------| 
C||---------------|---------------|---------------------|-------------------| 
G||---------------|---------------|---------------------|-------------------| 
A||---------------|---------------|---------------------|-------------------| 


D|-------------|-------------|-------------|-------|| 
A|-17----------|---------17--|-15----------|-------|| 
F|---------19--|-------------|---------14--|-------|| 
C|-------------|-19----------|-------------|-15----|| x2 
G|-------------|-------------|-------------|-------|| 
A|-------------|-------------|-------------|-------|| 


D||-------------|------|-------------|------| 
A||----------9--|-8----|----------9--|-8----| 
F||-------------|------|-------------|------| 
C||-----10------|------|-----10------|------| 
G||-8-----------|------|-8-----------|------| 
A||-------------|------|-------------|------| 


D|------------|----------|-------------|------|| 
A|------------|-0--------|-----------1-|-0----|| 
F|---------0--|----------|---------2---|------|| 
C|-----4------|----------|-----4-------|------|| x2 
G|-2----------|----------|-2-----------|------|| 
A|------------|----------|-------------|------|| 


Re-Intro 
D||----------------|-----------------|---------------|-------------2----|| 
A||--------2--3-3--|-3p2-------------|-------2--3-3--|-3p2-----0h2---3--|| 
F||--------0----0--|-----4p2-4/6-4\2-|-------0----0--|-----4p2----------|| 
C||----------------|-----------------|---------------|------------------|| x2 
G||----------------|-----------------|---------------|------------------|| 
A||--0-0-0---------|-----------------|-0-0-0---------|------------------|| 


Pre-Chorus 
D||------------------|------------------|| 
A||------------------|------------------|| 
F||--9-9-9-------9-9-|-9----------------|| 
C||------------------|------------------|| x2 
G||--7-7-7-------7-7-|-7-----------7----|| 
A||--------8-8-8-----|---8-8-8-5-8---8--|| 


D||------------------|------------------|| 
A||------------------|------------------|| 
F||--4-4-4-------4-4-|-4----------------|| 
C||------------------|------------------|| x2 
G||--2-2-2-------2-2-|-2-----------2----|| 
A||--------3-3-3-----|---3-3-3-0-3---3--|| 


Chorus 
D||-----------------|-----------------|-----------------|-----------------| 
A||-----------------|-----------------|-----------------|---------7-7-7-7-| 
F||-4-4-4-4-4-4-4-4-|-4-4-4-4-2-2-2-2-|-7-7-7-7-7-7-7-7-|-7-7-7-7-6-6-6-6-| 
C||-4-4-4-4-4-4-4-4-|-4-4-4-4-2-2-2-2-|-7-7-7-7-7-7-7-7-|-7-7-7-7-4-4-4-4-| 
G||-2-2-2-2-2-2-2-2-|-2-2-2-2-0-0-0-0-|-5-5-5-5-5-5-5-5-|-5-5-5-5---------| 
A||-----------------|-----------------|-----------------|-----------------| 


D|-----------------|-----------------|-----------------|-----------------|| 
A|-8-8-8-8---------|---------7-7-7-7-|-----------------|-----------------|| 
F|-7-7-7-7-2-2-2-2-|-2-2-2-2-6-6-6-6-|-4-4-4-4-4-4-4-4-|-4-4-4-4-2-2-2-2-|| 
C|-5-5-5-5-2-2-2-2-|-2-2-2-2-4-4-4-4-|-4-4-4-4-4-4-4-4-|-4-4-4-4-2-2-2-2-|| x2 
G|---------0-0-0-0-|-0-0-0-0---------|-2-2-2-2-2-2-2-2-|-2-2-2-2-0-0-0-0-|| 
A|-----------------|-----------------|-----------------|-----------------|| 


Solo 
D|------------|---------------|--------------| 
A|------------|---------------|--------------| 
F|-4-----4h=6-|-6b7-6b7~~~~---|-(6)----4\2---| 
C|------------|---------------|--------------| 
G|------------|---------------|--------------| 
A|------------|---------------|--------------| 


D|--------------|----------------------------|--------------------|----------------------------| 
A|--------------|--------14b16r14----14b15~~-|-(15)~~~---14b15r14-|----------------------------| 
F|-4b==6r4-2~~--|-(2)-------------12---------|--------------------|----------------------------| 
C|--------------|----------------------------|--------------------|-16\14-16-14/16~~-16--14h16-| 
G|--------------|----------------------------|--------------------|----------------------------| 
A|--------------|----------------------------|--------------------|----------------------------| 


D|-------------------------------------------| 
A|-------------------------------------------| 
F|-14h16p14----11h16p11p0-12p11p0-11p9p0-7p0-| 
C|----------16-------------------------------| 
G|-------------------------------------------| 
A|-------------------------------------------| 


D|------------------|------------------|---------------|----------------| 
A|------------------|------------------|---------------|-------------7--| 
F|-9-----7-9b11r=9--|-(9)--7-9-9b11r===|=9p7---7-9---7-|----------------| 
C|------------------|------------------|-----------9---|-7-9---7--------| 
G|------------------|------------------|---------------|-----9---7-9----| 
A|------------------|------------------|---------------|----------------| 


D|-----------|-----------------|---------------|----------------|-------| 
A|-8------7--|-7-7-7b8r7---7b8r|=7-------5h7p5p|-3-5b7----5b7p3-|-------| 
F|-----------|-----------------|---------------|----------------|-4~~~--| 
C|-----------|-----------------|---------------|----------------|-------| 
G|-----------|-----------------|---------------|----------------|-------| 
A|-----------|-----------------|---------------|----------------|-------| 


Outro 
D|----------------| 
A|--------2--3-3--| 
F|--------0----0--| 
C|----------------| 
G|----------------| 
A|--0-0-0---------| 



***********************************  
|  /  Slide up  
|  \  Slide down  
|  h  Hummer-on  
|  p  Pull-off  
|  +  Harmonic 
|  ~  Vibrato  
|  b  Bend  
|  =  Hold Bend 
| (n) Ghost Note 
*********************************** 
  

top 5 | mastodon
top heavy metal
Outras músicas do artista letras do(a) Mastodon
Top cifras »Top artistas »
Petaxxon Comunicação Online
Cifras.com.br - Melhor e mais completo site de cifras e tablaturas do Brasil
Mais de 1 milhão de acordes de músicas cadastradas desde 2003
As informações contidas no nosso site são colaborações de seus usuários e podem conter erros, sendo assim, não nos responsabilizamos sobre nenhuma destas.
close
menos
mais
close
Cor dos acordes:

Cor da letra:

 

save
close
close
 
redimensionar