Cifras e Tablaturas
Mastodon

Mastodon

Sultans Curse

Cifras Cancelar Versão de Impressão
cifras

Mastodon - Sultans Curse

fixar na tela  
Exibindo: vídeo-aula ver clipes redimensionar
  
0:11 - Intro 
D|-----------------------------------|--------------------------| 
A|-----------------------------------|----------------6---------| 
F|-----------------------------------|------------------4-4/7---| 
C|-----------10-9--------------------|----------7-6-5-----6/9---| 
G|------------8-7----------------5---|--------------------------| 
D|-0--0-0-0-------0--0--0-0-0--7---7-|-0--0-0-0-----------------| 


D|-----------------------------------|-----------------------------| 
A|-----------------------------------|-----------------------------| 
F|-----------------------------------|-----------------------------| 
C|-----------10-9--------------------|-----------------------------| 
G|------------8-7----------------5---|----------10-9---7-6-----3-3-| 
D|-0--0-0-0-------0--0--0-0-0--7---7-|-0--0-0-0--8-7-0-5-4-0-0-1-1-| 


0:21 - Verse 
D||-----------------------------------|--------------------------| 
A||-----------------------------------|----------------6---------| 
F||-----------------------------------|------------------4-4/7---| 
C||-----------10-9--------------------|----------7-6-5-----6/9---| 
G||------------8-7----------------5---|--------------------------| 
D||-0--0-0-0-------0--0--0-0-0--7---7-|-0--0-0-0-----------------| 


D|-----------------------------------|-----------------------------|| 
A|-----------------------------------|-----------------------------|| 
F|-----------------------------------|-----------------------------|| 
C|-----------10-9--------------------|-----------------------------|| x2 
G|------------8-7----------------5---|----------10-9---7-6-----3-3-|| 
D|-0--0-0-0-------0--0--0-0-0--7---7-|-0--0-0-0--8-7-0-5-4-0-0-1-1-|| 


0:38 - Chorus 
D||------------------|------------------0-------|-------------------|------------------1-------|| 
A||------------------|--------------0h1---1-----|-------------------|--------------0h3---3-----|| 
F||-----5--5----4--4-|-(4)------1h2-------------|-----5--5----5/7-4-|-(4)------0h2---------2---|| 
C||-----7--7----5--5-|-(5)--1h2-------------3-2-|-----7--7----7/9-5-|-(5)--0h3---------------3-|| x3 
G||-0---0--0----0--0-|-(0)----------------------|-0---0--0----0-0-0-|-(0)----------------------|| 
D||------------------|--------------------------|-------------------|--------------------------|| 


1:04 - Verse 
D||-----------------------------------|--------------------------| 
A||-----------------------------------|----------------6---------| 
F||-----------------------------------|------------------4-4/7---| 
C||-----------10-9--------------------|----------7-6-5-----6/9---| 
G||------------8-7----------------5---|--------------------------| 
D||-0--0-0-0-------0--0--0-0-0--7---7-|-0--0-0-0-----------------| 


D|-----------------------------------|-----------------------------|| 
A|-----------------------------------|-----------------------------|| 
F|-----------------------------------|-----------------------------|| 
C|-----------10-9--------------------|-----------------------------|| x2 
G|------------8-7----------------5---|----------10-9---7-6-----3-3-|| 
D|-0--0-0-0-------0--0--0-0-0--7---7-|-0--0-0-0--8-7-0-5-4-0-0-1-1-|| 


1:22 - Chorus 
D||------------------|------------------0-------|-------------------|------------------1-------|| 
A||------------------|--------------0h1---1-----|-------------------|--------------0h3---3-----|| 
F||-----5--5----4--4-|-(4)------1h2-------------|-----5--5----5/7-4-|-(4)------0h2---------2---|| 
C||-----7--7----5--5-|-(5)--1h2-------------3-2-|-----7--7----7/9-5-|-(5)--0h3---------------3-|| x4 
G||-0---0--0----0--0-|-(0)----------------------|-0---0--0----0-0-0-|-(0)----------------------|| 
D||------------------|--------------------------|-------------------|--------------------------|| 


1:58 - Bridge 
D||----------1--------|----------1--------|----------1--------|----------0--1-----|| 
A||-------3--------3--|-------3--------3--|-------3--------3--|----0--3--------3--|| 
F||----2--------2-----|----2--------2-----|----2--------2-----|-1-----------------|| 
C||-3-----------------|-2-----------------|-3-----------------|-------------------|| x4 
G||-------------------|-------------------|-------------------|-------------------|| 
D||-------------------|-------------------|-------------------|-------------------|| 


2:34 
D||---------------------------------|------------------------------------| 
A||---------------------------------|------------------------------------| 
F||---------------------------------|------------------------------------| 
C||---------------------------9---9-|----------------------------9-----9-| 
G||-----------7p6-9----------10--10-|----------12-10-10----------9h10-10-| 
D||-0--0-0-0--0---0-0--0-0-0--------|-0--0-0-0----------0--0-0-0---------| 


D|--------------------------------|--------------------------------|| 
A|--------------------------------|--------------------------------|| 
F|--------------------------------|--------------------------------|| 
C|--------------------------9---9-|-12-9---------9-12-9---------9--|| x2 
G|----------7p6-9----------10--10-|------10-9-10--------10-9-10----|| 
D|-0--0-0-0-0---0-0--0-0-0--------|--------------------------------|| 


2:51 
 6/8           12/8 
   Gtr I 
D|-------------||-----------------------|-------------------------------| 
A|-------------||-----------------------|-------------------------------| 
F|-------------||-----------------------|-------------------------------| 
C|-------------||--------9--7----10---9-|--(9)----9----7--------4----5--| 
G|-------------||-------10--9----12--10-|-(10)---10----9--------5----7--| 
D|-------------||-----------------------|-------------------------------| 
 | 
 | Gtr II 
D|-------------||-----------------------|-------------------------------| 
A|-------------||-----------------------|-------------------------------| 
F|-------------||-----------------------|----------------------------7--| 
C|-------------||-----------------------|--------------7-9p7------------| 
G|-4-5-5-5-4-2-||-(2)-------------------|---------9h10-------10-9h10----| 
D|-2-3-3-3-2-0-||-(0)-------------------|-------------------------------| 


D|---------------------|----------------------------|------------------------| 
A|---------------------|----------------------------|------------------------| 
F|---------------------|----------------------------|------------------------| 
C|-(5)----9--7----4--5-|-(5)---0----2--------4----5-|-(5)----9--7----10---9--| 
G|-(7)---10--9----5--7-|-(7)---2----3--------5----7-|-(7)---10--9----12--10--| 
D|---------------------|----------------------------|------------------------| 
 | 
D|---------------------|----------------------------|------------------------| 
A|---------------------|----------------------------|------------------------| 
F|-(7)-----------------|----------------------------|------------------------| 
C|---------------------|------------7-9p7-----------|------------------------| 
G|---------------------|-------9h10-------10-9h10-9-|-(9)--------------------| 
D|---------------------|----------------------------|------------------------| 


D|------------------------------|---------------------|-----------------------------|| 
A|------------------------------|---------------------|-----------------------------|| 
F|------------------------------|---------------------|-----------------------------|| 
C|--(9)----9----7--------4----5-|-(5)----9--7----4--5-|-(5)---0----2--------4----5--|| 
G|-(10)---10----9--------5----7-|-(7)---10--9----5--7-|-(7)---2----3--------5----7--|| 
D|------------------------------|---------------------|-----------------------------|| 
 | 
D|------------------------------|---------------------|-----------------------------|| 
A|------------------------------|---------------------|-----------------------------|| 
F|----------------------------9-|-(9)-----------------|-----------------------------|| 
C|--------------7-9p7-----------|---------------------|------------7-9p7------------|| x2 
G|---------9h10-------10-9h10---|---------------------|-------9h10-------10-9h10-7--|| 
D|------------------------------|---------------------|-----------------------------|| 


3:28 - Outro/Solo (rough approximation of solo) 
D|-14b15-----------------------|-(14)--------14b15-14b15-----14----| 
A|-----------------------------|-----------------------------------| 
F|-----------------------------|-----------------------------------| 
C|-----------------------------|-----------------------------------| 
G|-----------------------------|---------------------------------5-| 
D|-----------------------------|-----------------------------------| 
 | 
D|-----------------------------|-----------------------------------| 
A|-----------------------------|-----------------------------------| 
F|-----------------------------|-----------------------------------| 
C|------------9---9-------4--4-|----------5---5---------------7--7-| 
G|-----------10--10-------2--2-|----------3---3---------------5--5-| 
D|--0----0-0--------0-0-0------|---0--0-0-----------0----0-0-------| 


D|---------------------------|----------------------------------------------------| 
A|---------------------------|----------------------------------------------------| 
F|---------------------------|-------------------------------------------7--------| 
C|---------------------------|---------------7------7h9----7h9h10-7h9h10-----9h12-| 
G|-5///7-------------------5/|-7h9h10-7h9h10---9h10-----10------------------------| 
D|---------------------------|----------------------------------------------------| 
 | 
D|---------------------------|----------------------------------------------------| 
A|---------------------------|----------------------------------------------------| 
F|---------------------------|----------------------------------------------------| 
C|--------9---9-------4--4---|---------------7--------7------------------4--4-----| 
G|-------10--10-------5--5---|---------------9--------9------------------6--6-----| 
D|-0-0-0--------0-0-0--------|-0----0---0------------------0----0---0-------------| 


D|-------------------------------------------------------------| 
A|------------------8h12p8h10h12p10p8----8h10h12---10/12h14h15-| 
F|-9h11----9h11h12--------------------11-----------------------| 
C|------12-----------------------------------------------------| 
G|-------------------------------------------------------------| 
D|-------------------------------------------------------------| 
 | 
D|-------------------------------------------------------------| 
A|-------------------------------------------------------------| 
F|-------------------------------------------------------------| 
C|------------------9----------9-----------------4--------4----| 
G|-----------------10---------10-----------------2--------2----| 
D|-0-----0----0---------------------0----0-----0---------------| 


D|----------------------------12----------------------12----------12-------| 
A|-14h15p14-12----12h15p12-------15p12----12h15p12-------15p12-------15p12-| 
F|-------------14----------14----------14----------14----------14----------| 
C|-------------------------------------------------------------------------| 
G|-------------------------------------------------------------------------| 
D|-------------------------------------------------------------------------| 
 | 
D|-------------------------------------------------------------------------| 
A|-------------------------------------------------------------------------| 
F|-------------------------------------------------------------------------| 
C|--------------------5-----------5-----------------------7-----------7----| 
G|--------------------3-----------3-----------------------5-----------5----| 
D|--0-----0-----0-----------------------0-----0-----0----------------------| 


D|----------------------12----------15b17-----15b17--15-|-(15)~~~--12tr15---------------| 
A|-------------------------15p12------------------------|-------------------------------| 
F|-14-12h14p12----14b16----------14---------------------|-------------------------------| 
C|-------------14---------------------------------------|-------------------------------| 
G|------------------------------------------------------|-------------------------------| 
D|------------------------------------------------------|-------------------------------| 
 | 
D|------------------------------------------------------|-------------------------------| 
A|------------------------------------------------------|-------------------------------| 
F|------------------------------------------------------|-------------------------------| 
C|-----------------9-----------9---------------4------4-|---------------7--7-------4--4-| 
G|----------------10----------10---------------5------5-|---------------9--9-------6--6-| 
D|--0--0-----0-----------------------0----0-0-----------|---0---0-----0------0-0-0------| 


D|-15b17-----15b15.5-----------15b17--15b18-|-(15)--------12--------------------| 
A|------------------------------------------|----------------15b17-----15b17----| 
F|------------------------------------------|-----------------------------------| 
C|------------------------------------------|-----------------------------------| 
G|------------------------------------------|-----------------------------------| 
D|------------------------------------------|-----------------------------------| 
 | 
D|------------------------------------------|-----------------------------------| 
A|------------------------------------------|-----------------------------------| 
F|------------------------------------------|-----------------------------------| 
C|------------9--------9--------4------4----|----------5---5------------7-----7-| 
G|-----------10-------10--------2------2----|----------3---3------------5-----5-| 
D|--0----0-0-------------0-0-0--------------|---0--0-0--------0----0-0----------| 


D|----------------------------------------|----------------------------------------| 
A|-15b17-----15b17-----15b17-----15b17----|-15b17-----15b17----15b17-------15b17---| 
F|----------------------------------------|----------------------------------------| 
C|----------------------------------------|----------------------------------------| 
G|----------------------------------------|----------------------------------------| 
D|----------------------------------------|----------------------------------------| 
 | 
D|----------------------------------------|----------------------------------------| 
A|----------------------------------------|----------------------------------------| 
F|----------------------------------------|----------------------------------------| 
C|------------9------9------------4-----4-|------------7-----7-----------4-------4-| 
G|-----------10-----10------------5-----5-|------------9-----9-----------6-------6-| 
D|--0----0-0------------0----0-0----------|--0----0-0-----------0----0-0-----------| 


D|---------------------------------------------|------------------------------| 
A|-15b17---15b17r15----------------------------|------------------------------| 
F|-------------------12-------12h14p12h14p12\9-|-11-----9-11-9--7h9p7---7---7-| 
C|---------------------------------------------|----------------------9---9---| 
G|---------------------------------------------|------------------------------| 
D|---------------------------------------------|------------------------------| 
 | 
D|---------------------------------------------|------------------------------| 
A|---------------------------------------------|------------------------------| 
F|---------------------------------------------|------------------------------| 
C|----------------9---9--------4-----------4---|--------5----5----------7---7-| 
G|---------------10--10--------2-----------2---|--------3----3----------5---5-| 
D|--0----0--0-----------0-0-0------------------|--0-0-0---------0---0-0-------| 

(Lead guitar is obscured by vocals during this part. Here is what I assume he is playing.) 
D|---------------------------------|----------------------------------|-----*| 
A|---------------------------------|----------------------------------|-----*| 
F|-7h9p7~~-------------------------|--------------------------/9--7h9-|-7---*| 
C|----------7tr9-----------5tr7----|-4tr5----------2tr4---------------|-----*| 
G|---------------------------------|----------------------------------|-----*| 
D|---------------------------------|----------------------------------|-----*| 
 | 
D|---------------------------------|----------------------------------|-----*| 
A|---------------------------------|----------------------------------|-----*| 
F|---------------------------------|----------------------------------|-----*| 
C|----------9------9-------4-----4-|----------7--7----------4-----4---|-----*| 
G|---------10-----10-------5-----5-|----------9--9----------6-----6---|-----*| 
D|-0---0-0-----------0-0-0---------|-0----0-0------0----0-0-----------|-0---*| 



***********************************  
|  /  Slide up  
|  \  Slide down  
|  h  Hummer-on  
|  p  Pull-off  
|  ~  Vibrato  
|  b  Bend  
|  =  Hold Bend 
|  tr Trill 
| (n) Ghost Note 
*********************************** 
  

top 5 | mastodon
top heavy metal
Outras músicas do artista letras do(a) Mastodon
Top cifras »Top artistas »
Petaxxon Comunicação Online
Cifras.com.br - Melhor e mais completo site de cifras e tablaturas do Brasil
Mais de 1 milhão de acordes de músicas cadastradas desde 2003
As informações contidas no nosso site são colaborações de seus usuários e podem conter erros, sendo assim, não nos responsabilizamos sobre nenhuma destas.
close
menos
mais
close
Cor dos acordes:

Cor da letra:

 

save
close
close
 
redimensionar