Cifras e Tablaturas
Mateus Asato

Mateus Asato

Don't Dream It's Over

Cifras Cancelar Versão de Impressão
cifras

Mateus Asato - Don't Dream It's Over

fixar na tela  
Exibindo: vídeo-aula ver clipes redimensionar

Tom:

  
 Guitar Intro 
E|----------------------------------------------------------------------------------------------------| 
B|--------------------10b11r10/11\10\8-------------------10-------------------------------------------| 
G|-----------0------------------------------------10h12------13\12p10---------10----------------------| 
D|--------3-----3/10-----------------------10h12-----------------------12p10------12\5/6\5\3-------3--| 
A|-----3--------------------------------------------------------------------------------------5p3-----| 
E|--1-------------------------------------------------------------------------------------------------| 


E|--------------------------------------------------------17~p15-------------15~p13--------------------| 
B|-----------------------1------------11--13----------15-----------------13--------------15p13---------| 
G|--------------------3-----------14--------------15-----------------14--------------------------------| 
D|-----------------0--------3/12--------------15-----------------15------------------15---------15\12--| 
A|--5/8\5--7\3-----------------------------------------------------------------------------------------| 
E|--------------3--------------------------------------------------------------------------------------| 


E|-------------------------------------------------------| 
B|--10-----------6--10------------8----------------------| 
G|--10--------7-----10---------9-----10----------10------| 
D|---------8--------10-----10--------10------10----------| 
A|---------------------------------------13----------12--| 
E|------6---------------8--------------------------------| 


 Song Intro 
E|---------8----------------8---------------8------------------| 
B|---------8----------------8---------------8--------------11--| 
G|--10-----------10--10-----------10--8-----------8--8---------| 
D|--10-----------10--10-----------10--8-----------8--8---------| 
A|--8---8-----8------8---8-----8------8--8-----8-----8--8------| 
E|-------------------------------------------------------------| 


E|---------8----------------8------------(20)~--| 
B|---------8----------------8------------(20)~--| 
G|--10-----------10--10-----------10--8--(20)~--| 
D|--10-----------10--10-----------10--8--(20)~--| 
A|--8---8-----8------8---8-----8------8--(20)~--| 
E|----------------------------------------------| 


 Verse 
E|----------------------------| 
B|-----1---------5h6--6p5--5--| 
G|-----2----5h7--5----5p5--5--| 
D|-----3----7---------7p5--5--| 
A|--------8----------------8--| 
E|--1-------------------------| 


E|-------------------------| 
B|-----5------------8------| 
G|-----2--5h7/9/10-----9~--| 
D|--0----------------------| 
A|-------------------------| 
E|-------------------------| 


E|---------------------------------------------------------| 
B|---------------------------------------------------------| 
G|-------7-----7p5-----5-----5-----------------------------| 
D|-------5-----5-------5-----8-----8\7p5--5-----7-----7\2--| 
A|----------------------------------------0--0-----0-------| 
E|--3/6-----6-------6-----6-----6--------------------------| 


E|----------------------------| 
B|-----1---------5h6--6p5--5--| 
G|-----2----5h7--5----5p5--5--| 
D|-----3----7---------7p5--5--| 
A|--------8----------------8--| 
E|--1-------------------------| 


E|-------------------------| 
B|-----5------------8------| 
G|-----2--5h7/9/10-----9~--| 
D|--0----------------------| 
A|-------------------------| 
E|-------------------------| 


E|------------------------------------------------------------| 
B|---------------------------------------------------10-------| 
G|-------7-----7p5-----5-----5---------------------------9-~--| 
D|-------5-----5-------5-----8-----8\7p5--5-----7/12-----11~--| 
A|----------------------------------------0--0----------------| 
E|--3/6-----6-------6-----6-----6-----------------------------| 


 Chorus 
E|--------------------------------------------8---------------------------| 
B|--------6h8--------8-h10--------------------------6h8/10--6/8-----6-----| 
G|-------------7-----9------5/7/8\7\5--5--------------------7-9-----7-----| 
D|-------------------10-----5/7/8\7\5--5---------7------10-------0-----0--| 
A|-----8--------------------------------------8---------------------------| 
E|--6-------------8-------------------------------------------------------| 


E|-----------------------------------------8---------------------------| 
B|--------6h8--------8-h10-----------------------6h8/10--6/8-----6-----| 
G|-------------7-----9------8\7\5--7\5--5----------------7-9-----7-----| 
D|-------------------10-----8\7\5--7\5--5-----7------10-------0-----0--|      
A|-----8-----------------------------------8---------------------------| 
E|--6-------------8----------------------------------------------------| 


E|-------------------------------------------------------------------------------------8--| 
B|--------6h8--------8-h10\3p1-------------------------------------------------------8----| 
G|-------------7-----9-----2------------0----------5--10h12--12p10------10\9p7h9/10-------| 
D|-------------------10----3-------0h2--------5h7-----10-----10-----14--------------------| 
A|-----8------------------------3----------8----------------------------------------------| 
E|--6-------------8-----------------------------------------------------------------------| 


E|-----------------------------------------------------------8--| 
B|----------6-----6h8----------------------------------------8--| 
G|-----5/7-----7----------7p5-----5h7-----7-----7--7-----9---9--| 
D|-----------------------------8--8-------------8--8-----10-----| 
A|-------------------------------------------------------10-----| 
E|--6------------------6---------------6-----6--------6--8------| 


 verse 2 
E|----------------------------| 
B|-----1---------5h6--6p5--5--| 
G|-----2----5h7--5----5p5--5--| 
D|-----3----7---------7p5--5--| 
A|--------8----------------8--| 
E|--1-------------------------| 


E|-------------------------| 
B|-----5------------8------| 
G|-----2--5h7/9/10-----9~--| 
D|--0----------------------| 
A|-------------------------| 
E|-------------------------| 


E|-------------------------------------------------------------------------| 
B|--------------------------------------------------------------5----------| 
G|-------7-----7p5-----5-----5-------------------------------------7p6-----| 
D|-------5-----5-------5-----8-----8\7p5--5-----7-----7\2--2/7----------7--| 
A|----------------------------------------0--0-----0-----------------------| 
E|--3/6-----6-------6-----6-----6------------------------------------------| 


E|----------------------------| 
B|-----1---------5h6--6p5--5--| 
G|-----2----5h7--5----5p5--5--| 
D|-----3----7---------7p5--5--| 
A|--------8----------------8--| 
E|--1-------------------------| 


E|---------------------------8/10---------| 
B|--------------6------------6/8---9\8p6--| 
G|--------------5--5/7/9/10---------------| 
D|-----------7-----0----------------------| 
A|--7/8\7p5-------------------------------| 
E|----------------------------------------| 


E|----------------------------------------------------------------------------------------| 
B|---------------------------------------------------10-------10--13--13------13--10------| 
G|-------7-----7p5-----5-----5---------------------------9-~--10--12--12b(14)r12--10------| 
D|-------5-----5-------5-----8-----8\7p5--5-----7/12-----11~--------------------------12--| 
A|----------------------------------------0--0--------------------------------------------| 
E|--3/6-----6-------6-----6-----6---------------------------------------------------------| 


 Chorus 2 
E|--------------------------------------------8---------------------------| 
B|--------6h8--------8-h10--------------------------6h8/10--6/8-----6-----| 
G|-------------7-----9------5/7/8\7\5--5--------------------7-9-----7-----| 
D|-------------------10-----5/7/8\7\5--5---------7------10-------0-----0--| 
A|-----8--------------------------------------8---------------------------| 
E|--6-------------8-------------------------------------------------------| 


E|-----------------------------------------8---------------------------| 
B|--------6h8--------8-h10-----------------------6h8/10--6/8-----6-----| 
G|-------------7-----9------8\7\5--7\5--5----------------7-9-----7-----| 
D|-------------------10-----8\7\5--7\5--5-----7------10-------0-----0--|         
A|-----8-----------------------------------8---------------------------| 
E|--6-------------8----------------------------------------------------| 


E|-----------------------------------------------------------------------------------------8--------| 
B|--------6h8--------8-h10\3p1-------------------------------------------------------8h10-----10----| 
G|-------------7-----9-----2------------0----------5--10h12--12p10------10\9p7h9/10-----------------| 
D|-------------------10----3-------0h2--------5h7-----10-----10-----14------------------------------| 
A|-----8------------------------3----------8--------------------------------------------------------| 
E|--6-------------8---------------------------------------------------------------------------------| 


E|---------------12/13~--| 
B|-----------10----------| 
G|-------10--------------| 
D|----0------------------| 
A|-----------------------| 
E|-----------------------| 


E|-------------------------------------------------------| 
B|----------6-----6h8------------------------------------| 
G|-----5/7-----7----------7p5-----5h7-----7-----7--7-----| 
D|-----------------------------8--8-------------8--8-----| 
A|-------------------------------------------------------| 
E|--6------------------6---------------6-----6--------6--| 


 Bridge 
E|------------10--8-----------------8--------------------------| 
B|---------8---------11--10--8----------11--10--8--6-----5-----| 
G|-----10--------------------9--10-----------------7-----5-----| 
D|--8-------------------------------10----------------0-----0--| 
A|----------------------------------8--------------------------| 
E|---------------------------8---------------------------------| 


E|------------10--8------------------------8--------------------------------------1~--| 
B|---------8---------11--10--8--10-------------11--10--8--6-----5--------------1------| 
G|-----10--------------------9------9---------------------7-----5-----------3---------| 
D|--8----------------------------------10--10----------------0-----0-----0------------| 
A|-----------------------------------------8------------------------------------------| 
E|---------------------------8----------------------------------------3---------------| 


 Outro 
E|------------------------------------------------------------------------------------| 
B|-----10--11--10--------------10--11--10-------------11-------------------11---------| 
G|-------------------------10---------------------10------10-----------10------10-----| 
D|-----10--------------10----------------------8--------------8-----8--------------8--| 
A|--8---------------------------------------------------------------------------------| 
E|-----------------11----------------------10--------------------9--------------------| 


E|--------------------------------------------------------8--| 
B|----------------10-------------------8~-----------8h10-----| 
G|------------10------10------------9---------9h10-----------| 
D|--------10--------------10-----8---------0-----------------| 
A|-----8-----------------------------------------------------| 
E|--8-------------------------9------------------------------| 



E|--------------10h12--12p10------------------------------------------------------------------------| 
B|----------10----------------13--10------13--------------------------------------------------------| 
G|------10----------------------------12------10--12p10-----------------10--------------------------| 
D|--10---------------------------------------------------12--10-------------------------------------| 
A|---------------------------------------------------------------11/12------12\10--8---------8------| 
E|------------------------------------------------------------------------------------10--8-----10--| 


E|---------------0---------------~--| 
B|-------------------------------~--| 
G|-----------10-----------------0~--| 
D|--------0------------------3---~--| 
A|-----8------------------3------~--| 
E|--6------------------1---------~--| 


************************************ 
| h   Hammer-on 
| p   Pull-off 
| b   Bend 
| r   Relese 
| /   Slide Up 
| \   Slide down 
| ~   Vibrato 
************************************ 
  

top 5 | mateus asato
top rock'n roll
Outras músicas do artista letras do(a) Mateus Asato
Top cifras »Top artistas »
Petaxxon Comunicação Online
Cifras.com.br - Melhor e mais completo site de cifras e tablaturas do Brasil
Mais de 1 milhão de acordes de músicas cadastradas desde 2003
As informações contidas no nosso site são colaborações de seus usuários e podem conter erros, sendo assim, não nos responsabilizamos sobre nenhuma destas.
close
menos
mais
close
Cor dos acordes:

Cor da letra:

 

save
close
close
 
redimensionar