Cifras e Tablaturas
Mateus Asato

Mateus Asato

Lullaby In Tokyo

Cifras Cancelar Versão de Impressão
cifras

Mateus Asato - Lullaby In Tokyo

fixar na tela  
Exibindo: vídeo-aula ver clipes redimensionar

Tom:

  Verse 
e|-------------------(12)-----(7)--|---------------------------------| 
B|------------------------(7)------|----------------------0----------| 
G|---------------------------------|--------------1---------------2--| 
D|---------------------------------|----------4-------------------2--| 
A|---------------------------------|------2-------------------X------| 
E|---------------------------------|--0---------------0-------X------| 

e|---------------------------------|----------------------2-/-4---0--| 
B|------------------------------0--|--------------0-------0----------| 
G|--------------1-------2-------4--|----------------------2-/-4------| 
D|------2-------2-------2-------2--|------2--------------------------| 
A|--------------------------X------|---------------------------------| 
E|--2-------2-------2-------X------|--4-------4-------4--------------| 

e|----------------------0----------|---------------------------------| 
B|--------------0-----------0------|----------------------0----------| 
G|----------6-------------------6--|--------------1---------------2--| 
D|------7--------------------------|----------4-------------------2--| 
A|--0---------------0--------------|------2-------------------X------| 
E|---------------------------------|--0---------------0-------X------| 

e|---------------------------------|----------------------0----------| 
B|------------------------------0--|--------------0-------0---4-\-2--| 
G|--------------1-------2-------4--|--------------------------4-\-2--| 
D|------2-------2-------2-------2--|------2--------------------------| 
A|--------------------------X------|---------------------------------| 
E|--2-------2-------2-------X------|--4-------4-------4--------------| 

e|---------------------------------|---------------------------------| 
B|--------------2------------------|--------------0------------------| 
G|--------------2------------------|---------------------------------| 
D|------2---------------2----------|--1---1---------------1-------2--| 
A|--0-------0-------0--------------|--2-----------------------X---4--| 
E|---------------------------------|--2-------2-------2-------X---4--| 

e|---------------------------------|---------------------------------| 
B|--------------0------------------|--------------0------------------| 
G|---------------------------------|----------4----------------------| 
D|------2---------------2----------|------4---------------4-------7--| 
A|--------------------------4---/--|--6---------------6-------X---7--| 
E|----------4-------4--------------|--------------------------X------| 

e|---------------------------------|---------------------------------| 
B|-----------------------------10--|--------------9---------------9--| 
G|---------------------------------|---------------------------------| 
D|--------------6------------------|------10--------------9----------| 
A|------7--------------------------|---------------------------------| 
E|--0-------0-------0-------0------|--0-------0-------0-------0------| 

e|------------------------------9--|--------------9-------9p7--------| 
B|--------------9-----/-12------7--|--------------7-------7-------5--| 
G|------------------------------7--|------7-------7-------7-------6--| 
D|------9-------9-----/-12---------|------------------------------7--| 
A|---------------------------------|---------------------------------| 
E|--0-------0-------0-------0------|--7-------7-------7-------7------| 

e|---------------------------------|---------------------------------| 
B|--------------5-------7-------9--|------9h10----9------------------| 
G|--------------6-------6-------9--|------9-------9-------9-------8--| 
D|------7-------7-------7------10--|------10------10------10------9--| 
A|--0-------0-------0-------0------|---------------------------------| 
E|---------------------------------|--10------10------10------10-----| 

e|--------------0------------------|--------------0------------------| 
B|------------------0--------------|--0-h-2---------------2---X---5--| 
G|------8h9-------------9----------|--2-----------------------X---6--| 
D|------9-------------------9------|------------------------------7--| 
A|---------------------------------|---------------------------------| 
E|--9-------9----------------------|--2-------2-------2--------------| 

e|---------------------------------|--------------0---------------0--| 
B|------7-------5-------4-------5--|----------------------0----------| 
G|------6-------6-------4-------6--|----------6---------------6------| 
D|------7-------7-------4-------7--|------7--------------------------| 
A|--0-------0-------0-------0------|--0---------------0--------------| 
E|---------------------------------|---------------------------------| 

e|--------------0------------------|---------------------------------| 
B|------0---------------0----------|----------------------0-------3--| 
G|----------6---------------6------|--------------2---------------2--| 
D|------------------------------7--|----------5-------------------0--| 
A|--0---------------0--------------|------3-------------------X------| 
E|---------------------------------|--0---------------0-------X------| 

e|--------------0------------------|---------------------------------|-----(12)----(7)--0--------------| 
B|----------------------3----------|---------------------------------|--0------(7)------0--------------| 
G|------2--------------------------|------------------------------8--|------------------4--------------| 
D|------------------------------4--|-----/5\4p2-h-4--/9---7---6------|------------------6--------------| 
A|--------------------------X------|---------------------------------|------------------7--------------| 
E|--2-------2-------2-------X---0--|---------------------------------|---------------------------------| 


*********************************** 

| h      Hammer-On 
| p      Pull-Off 
| /      Slide Up 
| \      Slide Down 
| (n)    Harmonic 
| X      Dead Note 

*********************************** 
  

top 5 | mateus asato
top rock'n roll
Outras músicas do artista letras do(a) Mateus Asato
Top cifras »Top artistas »
Petaxxon Comunicação Online
Cifras.com.br - Melhor e mais completo site de cifras e tablaturas do Brasil
Mais de 1 milhão de acordes de músicas cadastradas desde 2003
As informações contidas no nosso site são colaborações de seus usuários e podem conter erros, sendo assim, não nos responsabilizamos sobre nenhuma destas.
close
menos
mais
close
Cor dos acordes:

Cor da letra:

 

save
close
close
 
redimensionar