Cifras e Tablaturas
Matthew Good

Matthew Good

Decades

Cifras Cancelar Versão de Impressão
cifras

Matthew Good - Decades

fixar na tela  
Exibindo: vídeo-aula ver clipes redimensionar

Tom:

  
Intro/Main Riff 
eb|---------------------------------------------------------------------------| 
Bb|------------------10--9----------------------------------------------------| 
Gb|----------4-7-7-9----------------------------------------------------------| 
Db|------2-4------------------------------------------------------------------| 
Ab|--2-4----------------------------------------------------------------------| 
Eb|---------------------------------------------------------------------------| 

Verse 
(Guitar 1) 
eb|-7------4--|---7------4--|---7------4---9-|-4---5----7----|----7-7-7-7-----| 
Bb|-7------5--|---7------5--|---7------5--10-|-5---5----7----|----7-7-7-7-----| 
Gb|-9------6--|---9------6--|---9------6--11-|-6---6----9----|----7-9-9-9-----| 
Db|-7------6--|---7------6--|---7------6--11-|-6---7----9----|----9-9-9-9-----| 
Ab|-7------4--|---7------4--|---7------4---9-|-4---7----7----|----7-7-7-7-----| 
Eb|-9------4--|---9------4--|---9------4---9-|-4---5----7----|----7-7-7-7-----| 
listen for actual strumming 

(Guitar 2) 
eb|---------------------------------------------------------------------------| 
Bb|---------------------------------------------------------------------------| 
Gb|---------------------------------------------------------------------------| 
Db|---------------------------------------------------------------------------| 
Ab|--7--9---------------------------------------------------------------------| 
Eb|--------7--9---------------------------------------------------------------| 

Second verse 
eb|--------------|---------------|--------------------|-----------------------| 
Bb|--------------|---------------|--------------------|-----------------------| 
Gb|--------------|---------------|--------------------|-----------------------| 
Db|-7--9---------|---------------|-----7--9-----------|-----------------------| 
Ab|------7--9----|--7--9---------|-----------7--9-9---|--7--9-----------------| 
Eb|-----------9--|--------7--9---|------------------9-|--------7--9-----------| 

Chorus 
(guitar 1) 
eb|-------------------------|-------------------------------------------------| 
Bb|-------------10-10-10-10-|-------------------------------------------------| 
Gb|--9--9--9--9-11-11-11-11-|-7--7--7--7--6--6--6--6--------------------------| 
Db|--9--9--9--9-11-11-11-11-|-7--7--7--7--7--7--7--7--------------------------| 
Ab|--7--7--7--7--9--9--9--9-|-5--5--5--5--7--7--7--7--------------------------| 
Eb|-------------------------|-------------5--5--5--5--------------------------| 

(guitar 2) 
eb|--17-17-17-17-17-17-17-17--------------------------------------------------| 
Bb|---------------------------------------------------------------------------| 
Gb|--14-14-14-14-14-14-14-14--------------------------------------------------| 
Db|---------------------------------------------------------------------------| 
Ab|---------------------------------------------------------------------------| 
Eb|---------------------------------------------------------------------------| 

play main riff after verse 2, then Chorus again, then main riff as outro 

last chord is same as first in verse 
  

top 5 | matthew good
top punk rock
Outras músicas do artista letras do(a) Matthew Good
Top cifras »Top artistas »
Petaxxon Comunicação Online
Cifras.com.br - Melhor e mais completo site de cifras e tablaturas do Brasil
Mais de 1 milhão de acordes de músicas cadastradas desde 2003
As informações contidas no nosso site são colaborações de seus usuários e podem conter erros, sendo assim, não nos responsabilizamos sobre nenhuma destas.
close
menos
mais
close
Cor dos acordes:

Cor da letra:

 

save
close
close
 
redimensionar