Cifras e Tablaturas
MC Kekel

MC Kekel

Quem Mandou Tu Terminar

Cifras Cancelar Versão de Impressão

MC Kekel - Quem Mandou Tu Terminar

Tom: Em

  			Em Am B7 

( Em  Am  E4 ) 

E agora? 
Não adianta me ligar 
E não chora 
Sai perreco, vai pra lá 
Que demora 
Pra perceber que esse mundo ia girar 
Pra perceber que esse mundo ia girar 

E agora? 
Não adianta me ligar 
E não chora 
Sai perreco, vai pra lá 
Que demora 
Pra perceber que esse mundo ia girar 
Pra perceber que esse mundo ia girar 

Tô bonito, tô né? 
Quem mandou tu terminar? 
Tô bonito, tô né? 
Quem mandou tu terminar? 

Tô bonito, tô né? 
Quem mandou tu terminar? 
Tô bonito, tô né? 
Quem mandou tu terminar? 

Tô bonito, tô né? 
Quem mandou tu terminar? 
Tô bonito, tô né? 
Quem mandou tu terminar? 

Solo 

E|-0-2-3--5/7--5-5-3-5-3-5-5/7-0-| 
B|-------------------------------| 
G|-------------------------------| 
D|-------------------------------| 
A|-------------------------------| 
E|-------------------------------| 

E|-0-2-3--5/7--5-3-2-3-2-0-| 
B|-------------------------| 
G|-------------------------| 
D|-------------------------| 
A|-------------------------| 
E|-------------------------| 

E|-0-2-3--5/7--5-5-3-5-3-5-5/7-0-| 
B|-------------------------------| 
G|-------------------------------| 
D|-------------------------------| 
A|-------------------------------| 
E|-------------------------------| 

E|-0-2-3--5/7--5-3-2-3-2-0-0h2-0-| 
B|-------------------------------| 
G|-------------------------------| 
D|-------------------------------| 
A|-------------------------------| 
E|-------------------------------| 

E|-------------------------------| 
B|-000-0h1---0-------------------| 
G|-------------------------------| 
D|-------------------------------| 
A|-------------------------------| 
E|-------------------------------| 
    	
fixar
fixar inscrever-se

enviado porenviado por: LINEKERS
cifra enviadaCorrigida por: sem correções
logo top cifrasComente
ico música do artistaMúsicas deste artista
ico curtiuCurtiu?
ico destaqueDestaque
Petaxxon Comunicação Online

Cifras.com.br - Melhor e mais completo site de cifras e tablaturas do Brasil Mais de 1 milhão de acordes de músicas cadastradas desde 2003
As informações contidas no nosso site são colaborações de seus usuários e podem conter erros, sendo assim, não nos responsabilizamos sobre nenhuma destas.

close
menos
mais
close
Cor dos acordes:

Cor da letra:

close
Alinhar acordes a direita Alinhar acordes a esquerda Alinhar acordes em baixo Alinhar acordes no topo
close
  Mostrar todos os acordes Esconder acordes muito fáceis Esconder acordes fáceis Esconder acordes intermediários
redimensionar
glossário