Cifras e Tablaturas
MC Pedrinho

MC Pedrinho

Solta O Grave

Cifras Cancelar Versão de Impressão
cifras

MC Pedrinho - Solta O Grave

fixar na tela  
Exibindo: vídeo-aula ver clipes redimensionar

Tom:

  
E|-0-0-3-1-0-1-0-----------------| 
B|---------------3-3-1---1---1---| 
G|---------------------2---2-----| 2x 
D|-------------------------------| 
A|-------------------------------| 
E|-------------------------------| 


PARTE 2 

E|-0---------------| 
B|---3-1---1---1---| 
G|-------2---2-----| 3x 
D|-----------------| 
A|-----------------| 
E|-----------------| 
  

top 5 | mc pedrinho
top funk
Outras músicas do artista letras do(a) MC Pedrinho
Top cifras »Top artistas »
Petaxxon Comunicação Online
Cifras.com.br - Melhor e mais completo site de cifras e tablaturas do Brasil
Mais de 1 milhão de acordes de músicas cadastradas desde 2003
As informações contidas no nosso site são colaborações de seus usuários e podem conter erros, sendo assim, não nos responsabilizamos sobre nenhuma destas.
close
menos
mais
close
Cor dos acordes:

Cor da letra:

 

save
close
close
 
redimensionar