Cifras e Tablaturas
Megadeth

Megadeth

Something That I'm Not

Ano: 2007
Album : That One Night: Live In Buenos Aires

Cifras Cancelar Versão de Impressão
cifras

Megadeth - Something That I'm Not

fixar na tela  
Exibindo: vídeo-aula ver clipes redimensionar

Tom:

  
 Play 3x 
E|---------------------------------|    | 
B|---------------------------------|    | 
G|---------------------------------|    | 
D|---4p2---4p2---4p2---4p2---4p2p0-| ---| 
A|-0-----0-----0-----0-----0-------| 
E|---------------------------------| 
         *     *     *     * 
  "...one big charade..." 

E|-------------------------------| 
B|-------------------------------| 
G|-------------------------------| 
D|----4p2---4p2------4p2---4p2---| 
A|-------------------------------| 
E|-4------4-----4-3------3-----3-| 
          *     *        *     * 
  "It's something you are..." 

E|------------------------| 
B|------------------------| 
G|------------------------| 
D|--------4-----------4---| 
A|------------------------| 
E|-2--2-2---2-x-x-0-2---2-| 
      * *   * 
  "...something that I'm not!" 

E|-------------------------------| 
B|-------------------------------| 
G|-------------------------------| 
D|--------4-----------4----------| 
A|-------------------------------| 
E|-2--2-2---2-x-x-0-2---2----x-x-| 
      * *   * 



Play Riff 1   "When you forced me..." 

Guitar fill over Riff 1: 
E|--------------------------------| 
B|--------------------------------| 
G|-11--------9--------8--------7--| 
D|--------------------------------| 
A|--------------------------------| 
E|--------------------------------| 

E|-------------------------------------| 
B|-------------------------------------| 
G|---------------------------------11--| 
D|--4--------7--------9----10--11------| 
A|-------------------------------------| 
E|-------------------------------------| 



Play Riff 2 


Riff 3a 
E|---------------------------------| 
B|---------------------------------| 
G|---------------------------------| 
D|---4p2---4p2---4p2---4p2---4p2p0-| ---| 
A|---------------------------------|    | 
E|-2-----2-----2-----2-----2-------|    | 
         *     *     *     *            | 
   "...you, I'm no vision..."           |--> Play 3x 
E|---------------------------------|    | 
B|---------------------------------|    | 
G|---------------------------------|    | 
D|---4p2---4p2---4p2---4p2---4p2p0-| ---| 
A|-0-----0-----0-----0-----0-------| 
E|---------------------------------| 
         *     *     *     * 
   "...lest you forget..." 

E|-------------------------------| 
B|-------------------------------| 
G|-------------------------------| 
D|----4p2---4p2------4p2---4p2---| 
A|-------------------------------| 
E|-4------4-----4-3------3-----3-| 
          *     *        *     * 
   "...something you are..." 


1st ending: 
E|------------------------| 
B|------------------------| 
G|------------------------| 
D|--------4-----------4---| 
A|------------------------| 
E|-2--2-2---2-x-x-0-2---2-| 
      * *   * 
   "...something that I'm not!" 

2nd ending: 
E|--------------------------| 
B|--------------------------| 
G|--------------------------| 
D|--------------------------| 
A|-4----2----333333-2p0-----| 
E|-2----0---------------3p0-| 
             ****** 
   "...something that I'm not!" 


Guitar fills over Riff 3a 
E|-----------------| 
B|-12b13--(13)b14--| 
G|-----------------| 
D|-----------------| 
A|-----------------| 
E|-----------------| 

E|--------------------| 
B|----12b13--10^------| 
G|-9--------------11~-| wah pedal 
D|--------------------| 
A|--------------------| 
E|--------------------| 

E|-----------------| 
B|-12b13--(13)b14--| 
G|-----------------| 
D|-----------------| 
A|-----------------| 
E|-----------------| 



Riff 4 (Solo Rhythm)            x8 
E|-------------------------------| 
B|-------------------------------| 
G|-------------------------------| 
D|--------------------3----------| 
A|---------3--1h2h3-1-1----------| 
E|-3-1-3-1---------------1-0-1-2-| 
   * * * *          *    * * * * 

E|---------------------------| 
B|---------------------------| 
G|---------------------------| 
D|---------------------------| 
A|-------------5-4-3-2-3-4-5-| 
E|-5-2-3-4-5-2---------------| 
                                  x3 
E|---------------------------------| 
B|---------------------------------| 
G|---------------------------------| 
D|---------------------------------| 
A|-------------------5-4-3-2-3-4-5-| 
E|-2-3-4-5-2-3-4-5-2---------------| 
                                  x3 
E|---------------------------------| 
B|---------------------------------| 
G|---------------------------------| 
D|---------------------------------| 
A|-----------------0-3-2-1-0-1-2-3-| 
E|-0-1-2-3-0-1-2-3-----------------| 

E|---------------------------------------| 
B|---------------------------------------| 
G|---------------------------------------| 
D|---------------------------------------| 
A|-----------------0-3-2-1-0-1-2-3-0-----| 
E|-0-1-2-3-0-1-2-3-------------------4-3-| 

                         x4 
E|------------------------| 
B|------------------------| 
G|------------------------| 
D|--------4-----------4---| 
A|------------------------| 
E|-2--2-2---2-x-x-0-2---2-| 
      * *   * 


Solo (Mustaine) 
E|-------------------------------------| 
B|-------------------------------------| 
G|-5--4--3-----------5--4--3-----------| 
D|-5--4--3-----3-----5--4--3-----------| 
A|---------------5~---------------7----| 
E|---------X\\----------------X\\---6^-| 

E|-------------------------------------------------| 
B|-----------------------3--x-5--x-3--x-5--x-3-x-5-| 
G|-5--4--3--3---3-5b6r5~-3--x-5--x-3--x-5--x-3-x-5-| 
D|-5--4--3----5------------------------------------| 
A|-------------------------------------------------| 
E|-------------------------------------------------| 

E|--------------------------------------------| 
B|--------------------------------------------| 
G|-------3----------5----------3---------3~---| 
D|-3h4h5---5--3h4h5---5--3h4h5---5-3h4h5----5-| 
A|--------------------------------------------| 
E|--------------------------------------------| 

E|-----------------------------------------------| 
B|-----------------------------------------------| 
G|-------5----------3--5-3---3b4-----------------| 
D|-3h4h5---5--3h4h5----a-a-5-a---5-4-3---3-------| 
A|-------------------------a-----a-a-a-5-a-5-4-3-| 
E|-------------------------------------a---a-a-a-| 

E|-------------------------------------------------| 
B|-------------------------------------------------| 
G|-------------------------------------------------| 
D|-------------------------------------------------| 
A|-------------------------------------------------| 
E|-6p3p0-6p3p0-6p3p0-6p3p0-6p3p0-6p3p0-6p3p0-6p3p0-| 

E|-22p17----20p17----17----------------| 
B|-------17-------20----22p17-20p17----| 
G|----------------------------------20-| 
D|-------------------------------------| 
A|-------------------------------------| 
E|-------------------------------------| 

E|-------------------------------------| 
B|-22p17----20p17----17----------------| 
G|-------20-------19----20p17-19p17----| 
D|----------------------------------19-| 
A|-------------------------------------| 
E|-------------------------------------| 

E|-------------------------------------| 
B|-------------------------------------| 
G|-20p17-----19p17----17---------------| 
D|-------19--------19----20p17-19p17---| 
A|----------------------------------19-| 
E|-------------------------------------| 

E|-------------------------------------| 
B|-------------------------------------| 
G|-19p17-19p17-19p17-19p17-19p17-19p17-| 
D|-------------------------------------| 
A|-------------------------------------| 
E|-------------------------------------| 

E|---------------------------------| 
B|---------------------------------| 
G|-23p19p17--17h19-23p19p17--17h19-| 
D|---------19--------------19------| 
A|---------------------------------| 
E|---------------------------------| 

E|----------------------------------------| 
B|----------------------------------------| 
G|-23p19p17-24p19p17-23p19p17-19p17-19p17-| 
D|----------------------------------------| 
A|----------------------------------------| 
E|----------------------------------------| 

E|-------------------------------------| 
B|-20p19p17-20p19p17-22p20p17-22p20p17-| 
G|-------------------------------------| 
D|-------------------------------------| 
A|-------------------------------------| 
E|-------------------------------------| 

E|-20p19p17-20p19p17-22p20p17-22p20p17-| 
B|-------------------------------------| 
G|-------------------------------------| 
D|-------------------------------------| 
A|-------------------------------------| 
E|-------------------------------------| 

E|-18p15---18p15---18p15---17p15---| 
B|------15------15------15------15-| 
G|---------------------------------| 
D|---------------------------------| 
A|---------------------------------| 
E|---------------------------------| 

E|-18p15---20p15---18p15---17p15---| 
B|------15------15------15------16-| 
G|---------------------------------| 
D|---------------------------------| 
A|---------------------------------| 
E|---------------------------------| 

E|-18p15---18p15---18p15---17p15---| 
B|------16------16------16------16-| 
G|---------------------------------| 
D|---------------------------------| 
A|---------------------------------| 
E|---------------------------------| 

E|-18p15---20p15---18p15---17p15---| 
B|------16------16------16------17-| 
G|---------------------------------| 
D|---------------------------------| 
A|---------------------------------| 
E|---------------------------------| 

E|-18p15---18p15---18p15---17p15---| 
B|------17------17------17------17-| 
G|---------------------------------| 
D|---------------------------------| 
A|---------------------------------| 
E|---------------------------------| 

E|-18p15---20p15---18p15---17p15---| 
B|------17------17------17------16-| 
G|---------------------------------| 
D|---------------------------------| 
A|---------------------------------| 
E|---------------------------------| 

E|-18p15---18p15---18p15---17p15---| 
B|------16------16------16------16-| 
G|---------------------------------| 
D|---------------------------------| 
A|---------------------------------| 
E|---------------------------------| 

E|-18p15---20p15---18p15---15\-| 
B|------16------16------16-----| 
G|-----------------------------| 
D|-----------------------------| 
A|-----------------------------| 
E|-----------------------------| 

E|-0tr2----(0tr2)----(0tr2)---------| 
B|----------------------------------| 
G|----------------------------------| 
D|----------------------------------| 
A|----------------------------------| 
E|-----------------------------X\\--| 

End Solo 



Play Riff 1   "It makes me sick..." 

Guitar fills over Riff 1 (wah pedal) 
E|-----------------------| 
B|-----------------------| 
G|-17b18----(18)r17------| 
D|-16b17----(17)r16-16~~-| 
A|-----------------------| 
E|-----------------------| 

E|-------------------| 
B|-------------------| 
G|-------------------| 
D|-7b8-7b8-7b8r7-----| 
A|-a---a---a-----9~--| 
E|-------------------| 

E|-----------------------| 
B|-----------------------| 
G|-16b18-16b18-16-14-14~-| 
D|-----------------------| 
A|-----------------------| 
E|-----------------------| 

E|-------14-------14-14-----| 
B|-------14-------14-14-----| 
G|-16b18----16b18-----------| 
D|--------------------------| 
A|--------------------------| 
E|----------------------X\\-| 



Riff 5 (Solo Rhythm)                                x3 
E|---------------------------------------------------| 
B|---------------------------------------------------| 
G|-------11---------10-------------9---------8-------| 
D|---------------------------------------------------| 
A|-/9999----999-7/8----8~--88-7777---777-5/6---6~-66-| 
E|---------------------------------------------------| 

E|--------------------------------------------| 
B|--------------------------------------------| 
G|------7---------6-------------5-------------| 
D|------------------------------------2--3--4-| 
A|-5555---555-3/4---4~--44-3333---333-0--1--2-| 
E|--------------------------------------------| 
                             "Something I'm not..." 

Solo (Mustaine) 
E|------------------------------------| 
B|------------------------------------| 
G|-------2----------------------------| 
D|-4-------3-----3-2----------------9-| 
A|----4-------4-------4--3~--2--/6----| 
E|------------------------------------| 

E|--------------------------------------------------| 
B|--------------------------------------------------| 
G|-------2-------2-4-4p2----------------------------| 
D|-4-------3-------------4--4-4p3p2-4-3-2---2-------| 
A|----4-------4---------------------------4---4-3-2-| 
E|--------------------------------------------------| 

E|-------5--------5-------------------| 
B|-7-------6~-------5--------------12-| 
G|----6--------6-------6--5--4--8-----| 
D|------------------------------------| 
A|------------------------------------| 
E|------------------------------------| 

E|-----------------------------------------| 
B|-15--------------------------------------| 
G|----11-----------14p11-13p10----------10-| 
D|-------12h14p12--------------11h13p11----| 
A|-----------------------------------------| 
E|-----------------------------------------| 

E|----------------------------------------------| 
B|----------------------------------------------| 
G|-13p10-12p9----------9-12\--------------------| 
D|------------10h12p10--------7--8--9-----------| 
A|-------------------------------------9~--(9)\-| 
E|----------------------------------------------| 

End Solo 



Riff 6 
E|------------------------| 
B|------------------------| 
G|------------------------| 
D|--------4-------------2-| 
A|----------------3--4----| 
E|-2--2-2---2-x-x---------| 
      * *   * 
E|------------------------| 
B|------------------------| 
G|------------------------| 
D|--------4----------2----| 
A|----------------5-----5-| 
E|-2--2-2---2-x-x---------| 
      * *   * 
               "Something that you are..." 


Play Riff 5   Solo Rhythm 

Solo (Mustaine) 
E|-17t0h14-17t0h14-17t0--17t0h13-17t0h13-17t0-| 
B|--------------------------------------------| 
G|--------------------------------------------| 
D|--------------------------------------------| 
A|--------------------------------------------| 
E|--------------------------------------------| 

E|-17t0h12-17t0h12-17t0--17t0h11-17t0h11-17t0-| 
B|--------------------------------------------| 
G|--------------------------------------------| 
D|--------------------------------------------| 
A|--------------------------------------------| 
E|--------------------------------------------| 

E|-17t0h14-17t0h14-17t0--17t0h13-17t0h13-17t0-| 
B|--------------------------------------------| 
G|--------------------------------------------| 
D|--------------------------------------------| 
A|--------------------------------------------| 
E|--------------------------------------------| 

E|-17t0h12-17t0h12-17t0--17t0h11-17t0h11-19t0-| 
B|--------------------------------------------| 
G|--------------------------------------------| 
D|--------------------------------------------| 
A|--------------------------------------------| 
E|--------------------------------------------| 

E|-17t0h14-17t0h14-17t0--17t0h13-17t0h13-17t0-| 
B|--------------------------------------------| 
G|--------------------------------------------| 
D|--------------------------------------------| 
A|--------------------------------------------| 
E|--------------------------------------------| 

E|-17t0h12-17t0h12-17t0--17t0h11-17t0h11-17t0-| 
B|--------------------------------------------| 
G|--------------------------------------------| 
D|--------------------------------------------| 
A|--------------------------------------------| 
E|--------------------------------------------| 

E|-14t0h10-14t0h10-14t0--13t0h9-13t0h9-13t0-| 
B|------------------------------------------| 
G|------------------------------------------| 
D|------------------------------------------| 
A|------------------------------------------| 
E|------------------------------------------| 

E|-12t0h8-12t0h8-12t0--9t0h5-9t0h5-9t0-----| 
B|-------------------------------------h7~-| 
G|-----------------------------------------| 
D|-----------------------------------------| 
A|-----------------------------------------| 
E|-----------------------------------------| 

End Solo 


Play Riff 6   "Something I'm not..." 


Final chord: 
E|-----| 
B|-----| 
G|-----| 
D|-----| 
A|--4--| 
E|--2--| 
  

top 5 | megadeth
top thrash metal
Outras músicas do artista letras do(a) Megadeth
Top cifras »Top artistas »
Petaxxon Comunicação Online
Cifras.com.br - Melhor e mais completo site de cifras e tablaturas do Brasil
Mais de 1 milhão de acordes de músicas cadastradas desde 2003
As informações contidas no nosso site são colaborações de seus usuários e podem conter erros, sendo assim, não nos responsabilizamos sobre nenhuma destas.
close
menos
mais
close
Cor dos acordes:

Cor da letra:

 

save
close
close
 
redimensionar