Cifras e Tablaturas
MercyMe

MercyMe

Joseph's Lullaby

Cifras Cancelar Versão de Impressão
cifras

MercyMe - Joseph's Lullaby

fixar na tela  
Exibindo: vídeo-aula ver clipes redimensionar
  
e|---------------|------------------| 
B|---------------|----4--4--3--1--1-| 
G|-0--1--1--0--3-|-0----------------| 
D|---------------|------------------| 
A|---------------|------------------| 
E|---------------|------------------| 
Go to sleep my Son| This manger for your bed 

e|------------------------|---------------| 
B|----1--1----------------|---------------| 
G|----------3--1--0-------|----0----------| 
D|-3-----------------3--1-|-1-----3--1--1-| 
A|------------------------|---------------| 
E|------------------------|---------------| 
You have a long road before You| Rest Your little head 

e|---------------------------|--------------------| 
B|-4--4--4--3--3--1--1-------|-1--1--1------------| 
G|----------------------5--3-|----------3--3------| 
D|---------------------------|----------------3h5-| 
A|---------------------------|--------------------| 
E|---------------------------|--------------------| 
Can You feel the weight of Your glory| Do You understand the price? 

e|------------------------------|------------------| 
B|------------------------------|------------------| 
G|----0-----------------1--0----|-------0----------| 
D|-1-----3--1--1--3--1--------3-|-1--1-----3--1--1-| 
A|------------------------------|------------------| 
E|------------------------------|------------------| 
Or does the Father guard Your heart for now |So You can sleep tonight? 

e|---------------|---------------| 
B|---------------|-4--4--3--1--1-| 
G|-0--1--1--0--3-|---------------| 
D|---------------|---------------| 
A|---------------|---------------| 
E|---------------|---------------| 
Go to sleep my Son| Go and chase Your dreams 

e|---------------------------|---------------| 
B|----1--1-------------------|---------------| 
G|----------3--0--1--0-------|----0----------| 
D|-1--------------------3--1-|-1-----3--1--1-| 
A|---------------------------|---------------| 
E|---------------------------|---------------| 
This world can wait for one more moment |Go and sleep in peace 

e|---------------------------|--------------------| 
B|-4--4--4--3--3--1--1-------|-1--1--1------------| 
G|----------------------5--3-|----------3--3------| 
D|---------------------------|----------------3h5-| 
A|---------------------------|--------------------| 
E|---------------------------|--------------------| 
I believe the glory of Heaven| Is lying in my arms tonight 

e|------------------------------|---------------| 
B|------------------------------|---------------| 
G|-0--------0-----0--1--0-------|----0----------| 
D|----3--1-----3-----------3--1-|-1-----3--1--1-| 
A|------------------------------|---------------| 
E|------------------------------|---------------| 
But Lord, I ask that He for just this moment| Simply be my child 


************************************ 

| /   slide up 
| \   slide down 
| h   hammer-on 
| p   pull-off 
| ~   vibrato 
| +   harmonic 
| x   Mute note 
| b   Bend 
| pb  Pre-bend 
| br  Bend release 
| pbr Pre-bend release 
| brb Bend release bend 

************************************ 
  

top 5 | mercyme
top gospel
Outras músicas do artista letras do(a) MercyMe
Top cifras »Top artistas »
Petaxxon Comunicação Online
Cifras.com.br - Melhor e mais completo site de cifras e tablaturas do Brasil
Mais de 1 milhão de acordes de músicas cadastradas desde 2003
As informações contidas no nosso site são colaborações de seus usuários e podem conter erros, sendo assim, não nos responsabilizamos sobre nenhuma destas.
close
menos
mais
close
Cor dos acordes:

Cor da letra:

 

save
close
close
 
redimensionar