Cifras e Tablaturas
Message To Bears

Message To Bears

Mountains

Cifras Cancelar Versão de Impressão
cifras

Message To Bears - Mountains

fixar na tela  
Exibindo: vídeo-aula ver clipes redimensionar
  
D|----------------------------------------------------------------------| 
A|-5---5---5---5---5---5---5---5---4---4---4---4---4---4---4---4--------| 
F#|---0---0---0---0---0---0---0---0---0---0---0---0---0---0---0---0------| 
D|----------------------------------------------------------------------| 
A|----------------------------------------------------------------------| 
D|----------------------------------------------------------------------| 
 
 
D|----------------------------------------------------------------------| 
A|-5---5---5---5---5---5---5---5---9---9---9---9---12---12---12---12----| 
F#|---0---0---0---0---0---0---0---0---0---0---0---0----0----0----0----0--|(Repete) 
D|----------------------------------------------------------------------| 
A|----------------------------------------------------------------------| 
D|----------------------------------------------------------------------| 
 

(Violão 2) 

 
D|-0-------2---0-------0-----0-------------0------0-------------0---------| 
A|------------------------------------------------------------------------| 
F#|-----0-----------0----------------0--------------------0----------------| 
D|---4-------4---4-------4-------4------------4-------4-------------4-----| 
A|-2-----2-----2-----2-------2----------2---------2----------2------------| 
D|------------------------------------------------------------------------| 
 
 
D|---------2---0-------0---0--------0----0---------0----------------------| 
A|-4----------------------------------------------------------------------| 
F#|-----0-----------0-----------0---------------0--------------------------| 
D|---4-------4---4-------4---4--------4------4---------4------------------| 
A|-0-----0-----0-----0-----0-----0-------0-------0------------------------| 
D|------------------------------------------------------------------------| 
 
D|-0-------2---0-------0---0--------0---------------0---------------------| 
A|------------------------------------------------------------------------| 
F#|-----0-----------0-----------0---------------0--------------------------| 
D|---4-------4---4-------4---4---------4-----4-----------4----------------| 
A|------------------------------------------------------------------------| 
D|-2-----2-----2-----2-----2-----2--------2-------2-----------------------| 
 
 
D|-0--------2----0---------0----0---------0-----0---------------0---------| 
A|------------------------------------------------------------------------| 
F#|------0--------------0-------------0-----------------0------------------| 
D|----4-------4-----4--------4-----4--------4-------4--------------4------| 
A|------------------------------------------------------------------------| 
D|-0------0------0-------0------0-------0-------0----------0--------------| 
 
 
D|-0-------2---0-------0-----0-------------0------0-------------0---------| 
A|------------------------------------------------------------------------| 
F#|-----0-----------0----------------0--------------------0----------------| 
D|---4-------4---4-------4-------4------------4-------4-------------4-----| 
A|-2-----2-----2-----2-------2----------2---------2----------2------------| 
D|------------------------------------------------------------------------| 
 
 
D|---------2---0-------0---0--------0----0---------0----------------------| 
A|-4----------------------------------------------------------------------| 
F#|-----0-----------0-----------0---------------0--------------------------| 
D|---4-------4---4-------4---4--------4------4---------4------------------| 
A|-0-----0-----0-----0-----0-----0-------0-------0------------------------| 
D|------------------------------------------------------------------------| 
 
D|-0-------2---0-------0---0--------0---------------0---------------------| 
A|------------------------------------------------------------------------| 
F#|-----0-----------0-----------0---------------0--------------------------| 
D|---4-------4---4-------4---4---------4-----4-----------4----------------| 
A|------------------------------------------------------------------------| 
D|-2-----2-----2-----2-----2-----2--------2-------2-----------------------| 
 
 
D|-0--------2----0---------0----0---------0-----0---------------0---------| 
A|------------------------------------------------------------------------| 
F#|------0--------------0-------------0-----------------0------------------| 
D|----4-------4-----4--------4-----4--------4-------4--------------4------| 
A|------------------------------------------------------------------------| 
D|-0------0------0-------0------0-------0-------0----------0--------------| 
 

(Variação) 
 
D|-0-------2---0-------0-----0-------------0------0-------------0---------| 
A|------------------------------------------------------------------------| 
F#|-----0-----------0----------------0--------------------0----------------| 
D|-----------4-----------4--------------------4---------------------4-----| 
A|-2-----2-----2-----2-------2----------2---------2----------2------------| 
D|------------------------------------------------------------------------| 
 
 
D|---------2---0-------0-------0----------0------0---------0--------------| 
A|-4----------------------------------------------------------------------| 
F#|-----0-----------0---------------0-----------------0--------------------| 
D|-----------4-----------4--------------------4----------------4----------| 
A|-0-----0-----0-----0---------0-------0---------0-------0----------------| 
D|------------------------------------------------------------------------| 
 
 
D|-0-------2---0-------0---0--------0------0---------0--------------------| 
A|------------------------------------------------------------------------| 
F#|-----0-----------0-----------0---------------0--------------------------| 
D|-----------4-----------4-------------4----------------4-----------------| 
A|------------------------------------------------------------------------| 
D|-2-----2-----2-----2-----2------2--------2-------2----------------------| 
 
 
D|-0--------2----0---------0----0---------0-----0---------------0---------| 
A|------------------------------------------------------------------------| 
F#|------0--------------0-------------0-----------------0------------------| 
D|------------4--------------4--------------4----------------------4------| 
A|------------------------------------------------------------------------| 
D|-0------0------0-------0------0-------0-------0----------0--------------| 
 
 
D|-0-------2---0-------0-----0-------------0------0-------------0---------| 
A|------------------------------------------------------------------------| 
F#|-----0-----------0----------------0--------------------0----------------| 
D|-----------4-----------4--------------------4---------------------4-----| 
A|-2-----2-----2-----2-------2----------2---------2----------2------------| 
D|------------------------------------------------------------------------| 
 
 
D|---------2---0-------0-------0----------0------0---------0--------------| 
A|-4----------------------------------------------------------------------| 
F#|-----0-----------0---------------0-----------------0--------------------| 
D|-----------4-----------4--------------------4----------------4----------| 
A|-0-----0-----0-----0---------0-------0---------0-------0----------------| 
D|------------------------------------------------------------------------| 
 
 
D|-0-------2---0-------0---0--------0------0---------0--------------------| 
A|------------------------------------------------------------------------| 
F#|-----0-----------0-----------0---------------0--------------------------| 
D|-----------4-----------4-------------4----------------4-----------------| 
A|------------------------------------------------------------------------| 
D|-2-----2-----2-----2-----2------2--------2-------2----------------------| 
 
 
D|-0--------2----0---------0----0---------0-----0---------------0---------| 
A|------------------------------------------------------------------------| 
F#|------0--------------0-------------0-----------------0------------------| 
D|------------4--------------4--------------4----------------------4------| 
A|------------------------------------------------------------------------| 
D|-0------0------0-------0------0-------0-------0----------0--------------| 
 

(Repete o inicio) 
 
D|-0-------2---0-------0-----0-------------0------0-------------0---------| 
A|------------------------------------------------------------------------| 
F#|-----0-----------0----------------0--------------------0----------------| 
D|---4-------4---4-------4-------4------------4-------4-------------4-----| 
A|-2-----2-----2-----2-------2----------2---------2----------2------------| 
D|------------------------------------------------------------------------| 
 
 
D|---------2---0-------0---0--------0----0---------0----------------------| 
A|-4----------------------------------------------------------------------| 
F#|-----0-----------0-----------0---------------0--------------------------| 
D|---4-------4---4-------4---4--------4------4---------4------------------| 
A|-0-----0-----0-----0-----0-----0-------0-------0------------------------| 
D|------------------------------------------------------------------------| 
 
D|-0-------2---0-------0---0--------0---------------0---------------------| 
A|------------------------------------------------------------------------| 
F#|-----0-----------0-----------0---------------0--------------------------| 
D|---4-------4---4-------4---4---------4-----4-----------4----------------| 
A|------------------------------------------------------------------------| 
D|-2-----2-----2-----2-----2-----2--------2-------2-----------------------| 
 
 
D|-0--------2----0---------0----0---------0-----0---------------0---------| 
A|------------------------------------------------------------------------| 
F#|------0--------------0-------------0-----------------0------------------| 
D|----4-------4-----4--------4-----4--------4-------4--------------4------| 
A|------------------------------------------------------------------------| 
D|-0------0------0-------0------0-------0-------0----------0--------------| 
 
 
D|-0-------2---0-------0-----0-------------0------0-------------0---------| 
A|------------------------------------------------------------------------| 
F#|-----0-----------0----------------0--------------------0----------------| 
D|---4-------4---4-------4-------4------------4-------4-------------4-----| 
A|-2-----2-----2-----2-------2----------2---------2----------2------------| 
D|------------------------------------------------------------------------| 
 
 
D|---------2---0-------0---0--------0----0---------0----------------------| 
A|-4----------------------------------------------------------------------| 
F#|-----0-----------0-----------0---------------0--------------------------| 
D|---4-------4---4-------4---4--------4------4---------4------------------| 
A|-0-----0-----0-----0-----0-----0-------0-------0------------------------| 
D|------------------------------------------------------------------------| 
 
D|-0-------2---0-------0---0--------0---------------0---------------------| 
A|------------------------------------------------------------------------| 
F#|-----0-----------0-----------0---------------0--------------------------| 
D|---4-------4---4-------4---4---------4-----4-----------4----------------| 
A|------------------------------------------------------------------------| 
D|-2-----2-----2-----2-----2-----2--------2-------2-----------------------| 
 
 
D|-0--------2----0---------0----0---------0-----0---------------0---------| 
A|------------------------------------------------------------------------| 
F#|------0--------------0-------------0-----------------0------------------| 
D|----4-------4-----4--------4-----4--------4-------4--------------4------| 
A|------------------------------------------------------------------------| 
D|-0------0------0-------0------0-------0-------0----------0--------------| 
 

("Final") 
 
D|-0-------2---0-------0-----0-------------0------0-------------0---------| 
A|------------------------------------------------------------------------| 
F#|-----0-----------0----------------0--------------------0----------------| 
D|---4-------4---4-------4-------4------------4-------4-------------4-----| 
A|-2-----2-----2-----2-------2----------2---------2----------2------------| 
D|------------------------------------------------------------------------| 
 
 
D|---------2---0-------0---0--------0----0---------0----------------------| 
A|-4----------------------------------------------------------------------| 
F#|-----0-----------0-----------0---------------0--------------------------| 
D|---4-------4---4-------4---4--------4------4---------4------------------| 
A|-0-----0-----0-----0-----0-----0-------0-------0------------------------| 
D|------------------------------------------------------------------------| 
 
D|-0-------2---0-------0---0--------0---------------0---------------------| 
A|------------------------------------------------------------------------| 
F#|-----0-----------0-----------0---------------0--------------------------| 
D|---4-------4---4-------4---4---------4-----4-----------4----------------| 
A|------------------------------------------------------------------------| 
D|-2-----2-----2-----2-----2-----2--------2-------2-----------------------| 
 
 
D|-0--------2----0---------0----0---------0-----0---------------0---------| 
A|------------------------------------------------------------------------| 
F#|------0--------------0-------------0-----------------0------------------| 
D|----4-------4-----4--------4-----4--------4-------4--------------4------| 
A|------------------------------------------------------------------------| 
D|-0------0------0-------0------0-------0-------0----------0--------------| 
 
 
D|-0-------2---0-------0-----0-------------0------0-------------0---------| 
A|------------------------------------------------------------------------| 
F#|-----0-----------0----------------0--------------------0----------------| 
D|---4-------4---4-------4-------4------------4-------4-------------4-----| 
A|-2-----2-----2-----2-------2----------2---------2----------2------------| 
D|------------------------------------------------------------------------| 
 
 
D|---------2---0-------0---0--------0----0---------0----------------------| 
A|-4----------------------------------------------------------------------| 
F#|-----0-----------0-----------0---------------0--------------------------| 
D|---4-------4---4-------4---4--------4------4---------4------------------| 
A|-0-----0-----0-----0-----0-----0-------0-------0------------------------| 
D|------------------------------------------------------------------------| 
  

top 5 | message to bears
top rock'n roll
Outras músicas do artista letras do(a) Message To Bears
Top cifras »Top artistas »
Petaxxon Comunicação Online
Cifras.com.br - Melhor e mais completo site de cifras e tablaturas do Brasil
Mais de 1 milhão de acordes de músicas cadastradas desde 2003
As informações contidas no nosso site são colaborações de seus usuários e podem conter erros, sendo assim, não nos responsabilizamos sobre nenhuma destas.
close
menos
mais
close
Cor dos acordes:

Cor da letra:

 

save
close
close
 
redimensionar