Cifras e Tablaturas
Metallica

Metallica

Murder One

Cifras Cancelar Versão de Impressão
cifras

Metallica - Murder One

fixar na tela  
Exibindo: vídeo-aula ver clipes redimensionar
  
Figure alternatives: 

e|----------------------------------------------------| 
B|----------------------------------------------------| 
G|----------------------------------------------------| 
D|------------4-------------------4---5~-OR-3~-OR ----| 
A|------------------------------------3~----3~-----3~-| 
E|-12\----2-------2--------0--2--------------------1~-| 

AND 

e|----------------------------------------|---------------------------------------| 
B|----------------------------------------|---------------------------------------| 
G|----------------------------------------OR--------------------------------------| 
D|----------------------------------------|---------------------------------------| 
A|---4------4--5-------4--5--4---5~--2----|---4------4--5-------4--5--4--s5-s3-s4-| 
E|---2---0--2--3----0--2--3--2---3~--0----|---2---0--2--3----0--2--3--2-----------| 
         PM PM      PM PM PM PM 

------------------------------------------------TAB STARTS HERE----------------------------------------------- 


Intro 

1                                                                               x2 (0:00-0:09) 
e|----------------------------------------------------------------------------| 
B|----------------------------------------------------------------------------| 
G|----------0----------------0-----------------0-----------------0------------| 
D|------4----------------5----------------10-----------------7----------------| 
A|--2----------------3----------------8------------------9--------------------| 
E|----------------------------------------------------------------------------| 


2                                                                               x2 (0:09-0:13) 
e|----------------------------------------------------------------------------| 
B|----------------------------------------------------------------------------| 
G|----------------------------------------------------------------------------| 
D|--4---4---4---4---4---5-----4---4---4---------------------------------------| 
A|--2p0-2p0-2p0-2p0-2p0-3-----2---2---2---------------------------------------| 
E|----------------------------------------------------------------------------| 
                              PM  PM  PM 

Repeat 1                                                                        x1 (0:13-0:18) 
e|----------------------------------------------------------------------------| 
B|----------------------------------------------------------------------------| 
G|----------0----------------0-----------------0-----------------0------------| 
D|------4----------------5----------------10-----------------7----------------| 
A|--2----------------3----------------8------------------9--------------------| 
E|----------------------------------------------------------------------------| 


Repeat 2                                                                        x2 (0:18-0:22) 
e|----------------------------------------------------------------------------| 
B|----------------------------------------------------------------------------| 
G|----------------------------------------------------------------------------| 
D|--4---4---4---4---4---5-----4---4---4---------------------------------------| 
A|--2p0-2p0-2p0-2p0-2p0-3-----2---2---2---------------------------------------| 
E|----------------------------------------------------------------------------| 
                              PM  PM  PM 


3                                                                                x1 (0:23-0:27) 
e|----------------------------------------------------------------------------| 
B|----------------------------------------------------------------------------| 
G|----------0----------------0-----------------0------------------------------| 
D|------4----------------5----------------10----------------------------------| 
A|--2----------------3----------------8------------------7--8--7tr8-----------| 
E|----------------------------------------------------------------------------| 

Repeat 2                                                                        x1 (0:27-0:30) 
e|----------------------------------------------------------------------------| 
B|----------------------------------------------------------------------------| 
G|----------------------------------------------------------------------------| 
D|--4---4---4---4---4---5-----4---4---4---------------------------------------| 
A|--2p0-2p0-2p0-2p0-2p0-3-----2---2---2---------------------------------------| 
E|----------------------------------------------------------------------------| 
                              PM  PM  PM 


Repeat 3                                                                        x1 (0:30-0:34) 
e|----------------------------------------------------------------------------| 
B|----------------------------------------------------------------------------| 
G|----------0----------------0-----------------0------------------------------| 
D|------4----------------5----------------10----------------------------------| 
A|--2----------------3----------------8------------------7--8--7tr8-----------| 
E|----------------------------------------------------------------------------| 

Repeat 2                                                                        x1 (0:34-0:36) 
e|----------------------------------------------------------------------------| 
B|----------------------------------------------------------------------------| 
G|----------------------------------------------------------------------------| 
D|--4---4---4---4---4---5-----4---4---4---------------------------------------| 
A|--2p0-2p0-2p0-2p0-2p0-3-----2---2---2---------------------------------------| 
E|----------------------------------------------------------------------------| 
                              PM  PM  PM 


4                                                                                x1 (0:36-0:41) 
e|----------------------------------------------------------------------------| 
B|----------------------------------------------------------------------------| 
G|----------------------------------------------------------------------------| 
D|---3---4---2---7---9~----2--------------------------------------------------| 
A|---5---2---0---5---7~-OR-2--------------------------------------------------| 
E|-------------------0~----0--------------------------------------------------| 


Verse 


5a                                      X3 Ending after 3rd time.                  (0:41-0:52) 
e|----------------------------------------|-----------------------------------| 
B|----------------------------------------|-----------------------------------| 
G|----------------------------------------|-----------------------------------| 
D|------------4-------------------4---3~--|----4--4---3---2-------------------| 
A|------------------------------------3~--|----2--2---5---0-------------------| 
E|-12\----2-------2--------0--2-----------|-----------------------------------| 


5b                                      X3 Ending after 3rd time.                  (0:52-1:02) 
e|----------------------------------------|-----------------------------------| 
B|----------------------------------------|-----------------------------------| 
G|----------------------------------------|-----------------------------------| 
D|------------4-------------------4---3~--|--------5--------------------------| 
A|------------------------------------3~--|----3-------3~-3~-3~--5--6--5------| 
E|--------2-------2-------0--2------------|----------------------3--4--3------| 
                                                                 PM PM 

Repeat 5a                               X3 Ending after 3rd time.                  (1:02-1:12) 
e|----------------------------------------|-----------------------------------| 
B|----------------------------------------|-----------------------------------| 
G|----------------------------------------|-----------------------------------| 
D|------------4-------------------4---3~--|----4--4---3---2-------------------| 
A|------------------------------------3~--|----2--2---5---0-------------------| 
E|--------2-------2-------0--2------------|-----------------------------------| 


                                                                                x4 (1:12-1:28) 
e|----------------------------------------------------------------------------| 
B|----------------------------------------------------------------------------| 
G|----------------------------------------------------------------------------| 
D|----------------------------------------------------------------------------| 
A|---4-----5----2---4---4\----------------------------------------------------| 
E|---2---0-3----0---2---2\----------------------------------------------------| 
         PM     PM? 


                                                                                x1 (1:28-1:39) 
e|----------------------------------------------------------------------------| 
B|----------------------------------------------------------------------------| 
G|----------------------------------------------------------------------------| 
D|--2---2---3---------2---2---3--------4---4---3---2-----4---5---6---7--------| 
A|--0---0---1---5-----0---0---1---5----2---2---5---0-----2---3---4---5--------| 
E|--------------3-----------------3-------------------------------------------| 

                                        X3 Ending after 3rd time.                  (1:39-1:53) 
e|----------------------------------------|-----------------------------------| 
B|----------------------------------------|-----------------------------------| 
G|----------------------------------------|-----------------------------------| 
D|------------4-------------------4---3~--|----4--4---3---2-------------------| 
A|------------------------------------3~--|----2--2---5---0-----5----2----4---| 
E|--------2-------2-------0--2------------|---------------------3----0----2---| 


                                                                                   (1:53-2:01) 
e|----------------------------------------------------------------------------| 
B|----------------------------------------------------------------------------| 
G|----------------------------------------------------------------------------| 
D|----------------------------------------------------------------------------| 
A|---5---2-------4--------5---2---------5~-2----------------------------------| 
E|---3---0-------2--------3---0---------3~-0----------------------------------| 


                                        X4                                         (2:01-2:21) 
e|----------------------------------------|-----------------------------------| 
B|----------------------------------------|-----------------------------------| 
G|----------------------------------------|-----------------------------------| 
D|----------------------------------------|--------5--------------------------| 
A|---4------4--5-------4--5--4---5~--2----|----3-------3~-3~-3~--5--6--5------| 
E|---0h2-0--2--3----0--2--3--2---3~--0----|----------------------3--4--3------| 
         PM PM      PM PM PM PM 


                                        X3 Ending after 3rd time.                  (2:21-2:30) 
e|----------------------------------------|-----------------------------------| 
B|----------------------------------------|-----------------------------------| 
G|----------------------------------------|-----------------------------------| 
D|------------4-------------------4---3~--|----4--4---3---2-------------------| 
A|------------------------------------3~--|----2--2---5---0-------------------| 
E|--------2-------2-------0--2------------|-----------------------------------| 


                                                                                    (2:21-2:48) 
e|----------------------------------------------------------------------------| 
B|----------------------------------------------------------------------------| 
G|----------------------------------------------------------------------------| 
D|----------------------------------------------------------------------------| 
A|---4-----5----2---4---4\----------------------------------------------------| 
E|---2---0-3----0---2---2\----------------------------------------------------| 
         PM     PM? 

                                                                                X1  (2:48-2:57) 
e|----------------------------------------------------------------------------| 
B|----------------------------------------------------------------------------| 
G|----------------------------------------------------------------------------| 
D|--2---2---3---------2---2---3--------4---4---3---2-----4---5---6---7--------| 
A|--0---0---1---5-----0---0---1---5----2---2---5---0-----2---3---4---5--------| 
E|--------------3-----------------3-------------------------------------------| 


                                                                                    (2:57-3:09) 
e|----------------------------------------|-----------------------------------| 
B|----------------------------------------|-----------------------------------| 
G|----------------------------------------|-----------------------------------| 
D|------------4-------------------4---3~--|----4--4---3---2-------------------| 
A|------------------------------------3~--|----2--2---5---0-----5----2----4---| 
E|--------2-------2-------0--2------------|---------------------3----0----2---| 


                                                                                   (3:09-3:18) 
e|----------------------------------------------------------------------------| 
B|----------------------------------------------------------------------------| 
G|----------------------------------------------------------------------------| 
D|----------------------------------------------------------------------------| 
A|---5---2-------4--------5---2---------5~-2----------------------------------| 
E|---3---0-------2--------3---0---------3~-0----------------------------------| 


                                        X4                                       (3:18-3:39) 
e|----------------------------------------|-----------------------------------| 
B|----------------------------------------|-----------------------------------| 
G|----------------------------------------|-----------------------------------| 
D|----------------------------------------|--------5--------------------------| 
A|---4------4--5-------4--5--4---5~--2----|----3-------3~-3~-3~--5--6--5------|  
E|---0h2-0--2--3----0--2--3--2---3~--0----|----------------------3--4--3------| 
         PM PM      PM PM PM PM 

                                                                                 (3:29-2:48) 
e|----------------------------------------|-----------------------------------| 
B|----------------------------------------|-----------------------------------| 
G|----------------------------------------|-----------------------------------| 
D|------------4-------------------4---3~--|----4--4---3---2-------------------| 
A|------------------------------------3~--|----2--2---5---0-------------------| 
E|--------2-------2-------0--2------------|-----------------------------------| 


                                                11                              x2  (3:48-4:11) 
e|------------------------------------------------|---------------------------| 
B|------------------------------------------------|---------------------------| 
G|------------------------------------------------|---------------------------| 
D|--------0--------0----------0-------------------|---------------------------| 
A|-----4---------5--------10----------------------|---------------5---4-4-4---| 
E|--2---------3--------8----------7--8--7h8p7h8p7-|--2p0h2p0h2p0--3---2-2-2---| 
                                                                      PMPMPM 
                                                x1                              x2 
e|------------------------------------------------|---------------------------| 
B|------------------------------------------------|---------------------------| 
G|------------------------------------------------|---------------------------| 
D|--------0--------0----------0-------------------|---------------------------| 
A|-----4---------5--------10----------------------|---------------5---4-4-4---| 
E|--2---------3--------8----------7--8--7h8p7h8p7-|--2p0h2p0h2p0--3---2-2-2---| 
                                                                      PMPMPM 

                                                                                x1 
e|------------------------------------------------|---------------------------| 
B|------------------------------------------------|---------------------------| 
G|------------------------------------------------|---------------------------| 
D|--------0--------0----------0-------------------|---------------------------| 
A|-----4---------5--------10----------------------|----5~~~~--2---------------| 
E|--2---------3--------8----------7--8--7h8p7h8p7-|----3~~~~--0---------------| 


SOLO. Can't work it out at the moment but here's what I could get of Hetfields' Rhythm. 

                                        X5 On fifth time                        (4:11-4:33) 
e|----------------------------------------|-----------------------------------| 
B|----------------------------------------|-----------------------------------| 
G|----------------------------------------|-----------------------------------| 
D|----------------------------------------|-----------------------------------| 
A|---4------4--5-------4--5--4---5~--2----|-----5-----2-----------------------| 
E|---0h2-0--2--3----0--2--3--2---3~--0----|-----3-----0-----------------------| 
         PM PM      PM PM PM PM 

                                        x2 On Second time                         (4:33-4:47) 
e|----------------------------------------|-----------------------------------| 
B|----------------------------------------|-----------------------------------| 
G|----------------------------------------|-----------------------------------| 
D|----------------------------------------|-----------------------------------| 
A|--4---4-4---4-4---4-4---4-5---2---------|-----5~-----2~---------------------| 
E|--2---2-2---2-2---2-2---2-3---0---------|-----3~-----0~---------------------| 


                                        X4                                      x2   (4:33-5:03) 
e|----------------------------------------|-----------------------------------| 
B|----------------------------------------|-----------------------------------| 
G|----------------------------------------|-----------------------------------| 
D|----------------------------------------|------5----------------------------| 
A|---4------4--5-------4--5--4---5~--2----|--3-------3~-3~-3~-5-6-5---4-5-4---|  
E|---2---0--2--3----0--2--3--2---3~--0----|-------------------3-4-3---2-3-2---| 
         PM PM      PM PM PM PM 

                                       X3 Ending after 3rd time.                  (4:33-5:21) 
e|----------------------------------------|-----------------------------------| 
B|----------------------------------------|-----------------------------------| 
G|----------------------------------------|-----------------------------------| 
D|------------4-------------------4---3~--|----4--4---3---2-------------------| 
A|------------------------------------3~--|----2--2---5---0-------------------| 
E|--------2-------2-------0--2------------|-----------------------------------| 


                                       X3 Ending after 3rd time.                  (5:21-5:30) 
e|----------------------------------------|-----------------------------------| 
B|----------------------------------------|-----------------------------------| 
G|----------------------------------------|-----------------------------------| 
D|------------4-------------------4---3~--|--4---4---4---4---4---5---4--4--4--| 
A|------------------------------------3~--|--2p0-2p0-2p0-2p0-2p0-3---2--2--2--| 
E|--------2-------2----------2------------|-----------------------------------| 
                                                                     PM PM PM 

                                                                                  (5:30-5:32) 
e|----------------------------------------------------------------------------| 
B|----------------------------------------------------------------------------| 
G|----------------------------------------------------------------------------| 
D|--4---4---4---4---4---5-----4---4---4---------------------------------------| 
A|--2p0-2p0-2p0-2p0-2p0-3-----2---2---2---------------------------------------| 
E|----------------------------------------------------------------------------| 
                              PM  PM  PM 
                                                                                  (5:32-5:38) 
e|-----------------------------------------------|----------------------------| 
B|-----------------------------------------------|----------------------------| 
G|-----------------------------------------------|----------------------------| 
D|--------0--------0----------0------------------|----------------------------| 
A|-----4---------5--------10---------------------|-4-4-4-4-4--5-----4---4---4-| 
E|--2---------3--------8----------7--8--7h8p7h8p7|-2-2-2-2-2--3-----2---2---2-| 
                                                                    PM  PM  PM 

                               (5:38-5:45) 
e|----------------------------| 
B|----------------------------| 
G|----------------------------| 
D|-4---4---4---4---4---5---4\-|                              FIN. 
A|-2p0-2p0-2p0-2p0-2p0-3---2\-| 
E|----------------------------| 


Effects used were Clean and Distortion. 
  

top 5 | metallica
top thrash metal
Outras músicas do artista letras do(a) Metallica
5.
One
Top cifras »Top artistas »
Petaxxon Comunicação Online
Cifras.com.br - Melhor e mais completo site de cifras e tablaturas do Brasil
Mais de 1 milhão de acordes de músicas cadastradas desde 2003
As informações contidas no nosso site são colaborações de seus usuários e podem conter erros, sendo assim, não nos responsabilizamos sobre nenhuma destas.
close
menos
mais
close
Cor dos acordes:

Cor da letra:

 

save
close
close
 
redimensionar