Cifras e Tablaturas
Mf Doom

Mf Doom

Datura Stramonium

Cifras Cancelar Versão de Impressão
cifras

Mf Doom - Datura Stramonium

fixar na tela  
Exibindo: vídeo-aula ver clipes redimensionar
  
   
  Abm				Gb	 
   Q     E   E   S  S  Q.       E   E   E  E   S S  Q. 
e|-------16------16-16--------|-14---------9---14---------| 
B|-------12------12h13--------|-----11--12-----9h11-------| 
G|-13--------13--------13-----|-11------------------11----| 
D|----------------------------|---------------------------| 
A|----------------------------|---------------------------| 
E|----------------------------|---------------------------| 

   E			   Eb 
   E  E  E  E  E  Q    E   E  E  Q     E. S E E 
e|-------------10-8------|-------11----9----7h8-| 
B|----8--9---------------|----9-----------9-9---| 
G|-9--------9--10-8----8/|/9--------------------| 
D|-----------------------|----------------------| 
A|-----------------------|----------------------| 
E|-----------------------|----------------------| 

   Abm			       Gb 
   E   E   Q     E   Q    E    E  E  E  E  E  Q     E 
e|---------------11--11------|-14-14-14-14-14-14-------| 
B|---------14----12----------|-10/11-12-13-14----------| 
G|-13------13--------13---11-|----------------11----12/| 
D|-----13--------------------|-------------------------| 
A|---------------------------|-------------------------| 
E|---------------------------|-------------------------| 

   E			  Eb 
   E  E  Q    E  Q    E   E  E  E  E  S E    S  E  E 
e|----12-10---9--7------|-11-11-11-11-11--------11-11--| 
B|----------------------|--9-10-11-12-12h13-----13-14--| 
G|/13-13-11---9--7----7-|--------------------13--------| 
D|----------------------|------------------------------| 
A|----------------------|------------------------------| 
E|----------------------|------------------------------|  
  

cifra enviadasem correções
enviado porenviada por:alyslima
top 5 | mf doom
top rock'n roll
Outras músicas do artista letras do(a) Mf Doom
Top cifras »Top artistas »
Petaxxon Comunicação Online
Cifras.com.br - Melhor e mais completo site de cifras e tablaturas do Brasil
Mais de 1 milhão de acordes de músicas cadastradas desde 2003
As informações contidas no nosso site são colaborações de seus usuários e podem conter erros, sendo assim, não nos responsabilizamos sobre nenhuma destas.
close
menos
mais
close
Cor dos acordes:

Cor da letra:

 

save
close
close
 
redimensionar