Cifras e Tablaturas
Michael Gungor

Michael Gungor

Filled With Glory

Cifras Cancelar Versão de Impressão
cifras

Michael Gungor - Filled With Glory

fixar na tela  
Exibindo: vídeo-aula ver clipes redimensionar
  
Intro / Riff at opening of Verses 

(sounds like two guitars, here as one...) 
e|------------------------------------------| 
B|------------------------------------------| 
G|--7-7-7--6-6/--2-2-2--2/4--4-4--4-4--4-4--| 
D|--0------0-----0------0-------------------| x2 
A|------------------------------------------| 
E|------------------------------------------| 

e|------------------------------------------| 
B|--7-7-7--5-5---2-2-2--2-3--3-3--3-3--3-3--| 
G|--7-7-7--6-6/--2-2-2--2/4--4-4--4-4--4-4--| 
D|--0------0-----0------0-------------------|  
A|------------------------------------------| 
E|------------------------------------------| 

e|---------------5-5-5-5/7-7---| 
B|--7-7-7--5-5-----------------| 
G|--7-7-7--6-6/----------------| 
D|--0------0-----0-----0-------|  
A|-----------------------------| 
E|-----------------------------| 

Verse 
Riff 
e|-----------------------------------------| 
B|--3-3-5--3-3-3-5-3----5-5-7--5-5-5-7-5---| 
G|--2-2-2--2-3-3-2-2----7-7-7--7-7-7-7-7---| 
D|-----------------------------------------| 
A|-----------------------------------------| 
E|-----------------------------------------| 

Main 
   D/F#       G            Dmaj7 
e|------0-----------0------0-0-2---0-0-0-2-0-| 
B|--3-3-------3-3-3---3----2-2-----2-2-2-----| 
G|--2---------0------------2-------2---------| 
D|-------------------------0-------0---------| 
A|-------------------------------------------|   
E|--2---------3------------------------------| 
(As we all bow down) 

   D/F#       G            A 
e|------0-----------0------0-0-2---0-0-0-2-0-| 
B|--3-3-------3-3-3---3----2-2-----2-2-2-----| 
G|--2---------0------------2-------2---------| 
D|-------------------------------------------| 
A|-------------------------0-------0---------| 
E|--2---------3------------------------------| 
                (As we all come casting off our crowns) 

   D/F#       G             Bm    
e|------0-----------0---------------5-5-5---5-5--| 
B|--3-3-------3-3-3---3-----7-7-7---7-7-7---7-7--| 
G|--2---------0-------------7-7-7---7-7-7---7-7--| 
D|-----------------------------------------------| 
A|-----------------------------------------------| 
E|--2---------3-------------7-------7-------7----| 
                        (Would You hear our cry) 

    G           A        D 
e|--3-3-3--3/---5-5-5----0-------| 
B|--3-3-3--3/---5-5-5----3-------|  last D = back to INTRO Riff 
G|--4-4-4--4/---6-6-6----2-------|    (play intro riff again) 
D|--5-----------7--------0-------| 
A|-------------------------------| 
E|-------------------------------| 
 (We want to see you glorified) 

First Chorus 
    G      A          D            G      A          D/F# 
e|------------------------------|--2----------0---------0-3-2--| 
B|--3----------2-3----3-3-3-2---|--3------------2-----3--------| 
G|--0------2-2--------2---------|--0------2-2---------2--------| 
D|--0------2----------0---------|--0------2--------------------| 
A|---------0--------------------|---------0--------------------| 
E|--3---------------------------|--3------------------2--------| 
   (Glorify Your name)                 (Glorify Your name) 

    G          A          Bm      G     A     D 
e|----------------------------|---5-----5-----------| 
B|--3-----3----2----------7---|---3-----5-----7-----| 
G|--0---0------2----------7---|---0-----6-----7-----| 
D|--0-0--------2--------------|---------7-----0-----|  last D = back  
A|-------------0--------------|---------0-----------|   to INTRO Riff 
E|--3---------------------7---|---3-----------------| 
   (Glorify Your name)          (We want to see You glorified) 

SECOND Chorus  =   Same, but just the CHORDS 

Bridge 
(“The earth will be filled with glory...”) 
   G           A             Bm  
e|--------------------------------------------5---| 
B|--3---3-2----5--------------------------------7-| 
G|--0-0--------6-6-6--6-7--------7-7-7--7-7-7-----| 
D|--0----------7----------------------------------| 
A|-------------0----------------------------------| 
E|--3-------------------------7---------7---------| 

   G           A             Bm  
e|---------------------------------------5-----| 
B|--3-----3-2----5---5-7-------------------7---| 
G|--0---0--------6-6---------7-7-7--7-7--------| 
D|----0----------7-----------------------------| 
A|---------------0-----------------------------| 
E|--3----------------------7-------------------| 

Last Chorus 
(On the D chordu, he goes) 
e|--10--10--10--12---10-10-12---| 
B|--10--10--10--10---10-10------| 
G|--11--11--11-------11-11------| 
D|--0---0------------0----------| 
A|------------------------------| 
E|------------------------------| 
  

cifra enviadasem correções
enviado porenviada por:VsWorld
top 5 | michael gungor
top gospel
Outras músicas do artista letras do(a) Michael Gungor
Top cifras »Top artistas »
Petaxxon Comunicação Online
Cifras.com.br - Melhor e mais completo site de cifras e tablaturas do Brasil
Mais de 1 milhão de acordes de músicas cadastradas desde 2003
As informações contidas no nosso site são colaborações de seus usuários e podem conter erros, sendo assim, não nos responsabilizamos sobre nenhuma destas.
close
menos
mais
close
Cor dos acordes:

Cor da letra:

 

save
close
close
 
redimensionar