Cifras e Tablaturas
Michael Jackson

Michael Jackson

Billie Jean (Fingerstyle) Tablatura Verificada

Compositor : (Michael Jackson)

Cifras Cancelar Versão de Impressão
cifras

Michael Jackson - Billie Jean (Fingerstyle)

fixar na tela  
Exibindo: vídeo-aula ver clipes redimensionar

Tom:

  
Capo 2  


Intro:  

e|-------------------------------------------------------------------|  
B|-------------------------------------------------------------------|  
G|-------------------------------------------------------------------|  
D|-2---0-2-----0-2---0-2---0-2--0---------2----0--2------0--2------0-|  
A|---2-----x-2-----2-----2--------2-0--------2---------2-------0-2---|  
E|------------------------------------3---0-------2---------3--------|  

e|------------------------------------------------|  
B|------------------------------------------------|  
G|------------------------------------------------|  
D|-2-0--------2---0--2---0--2-----0--2--0---------|  
A|-----2-0------2------2------0-2---------2-0-----|  
E|-2-------3--0------2------3--------2--------3-0-|  

Intro 2:  

e|--0---------2----------3---------2---------------|  
B|--0---------2----------3---------2---------------|  
G|-------------------------------------------------|  
D|--2-----0---2------0---2-----0---2--0------------|  
A|-----2----------2---------2------------2--0------|  
E|----------------------------------------------3--|  

Part A:  

e|----------------------------------|  
B|-------0---0----0---0-----------0-|  
G|-------0---2----2---2------2-0----|  
D|-------2---2----2---0-------------|  
A|----------------------------------|  
E|---0-------2--------3---2---------|  

e|---------------------------------------------------------------------|  
B|-------0---0----0---0------------------------------------------------|  
G|-------0---2----2---2---2--0-----------------------------------------|  
D|-------2---2----2---0---------4---2------------4--2-----4--2---4-2---|  
A|-----------------------------------0--------0-------0--------0-------|  
E|---0-------2--------3---2------------0---3-------------------------0-|  


e|---0----0--0---3--0--3p0--0-----0-|  
B|---1----1--1---1--1-------0--3----|  
G|---0----0--0---0--0-------0-------|  
D|----------------------------------|  
A|---3----3-------------------------|  
E|------------------0-------------0-|  

e|---0--0--0---2----0-------9------------|  
B|---1--3--1---3----0-------10--12---10--|  
G|---0--0--0---2----0--------------------|  
D|-------------0-------------------------|  
A|---3--2--0-----------------------------|  
E|------------------0--------------------|  

e|---0----0--0---3--0--3p0---0-----0-|  
B|---1----1--1---1--1--0-----0--3--0-|  
G|---0----0--0---0--0--0-----0-------|  
D|-----------------------------------|  
A|---3----3--3-----------------------|  
E|---------------------0-------------|  

e|-------------------------2----0--2-|  
B|---1----1/3---5-----4----4-------4-|  
G|--------------------4----4-------4-|  
D|---2----2/4---5--------------------|  
A|--------------------2------------2-|  
E|-----------------------------------|  

Chorus:  

e|-------0--0------------0---0------------0----0-----|  
B|-------0--0----3-------0---0---3--------0----0---3-|  
G|-------0--0----2-------0---0---2--------0----0---2-|  
D|---------------0---------------------------------0-|  
A|---------------------------------------------------|  
E|--0------------2---3-----------2----0------------2-|  

e|-0--2--3--5--3--2---0----------------0-0--9---6----0-------------|  
B|--------------------1----------------0-0--10--8----0----1--0-----|  
G|--------------------4-----------------------------------2--0-----|  
D|--------------------2--------------------------------------------|  
A|--------------------0-----------0--------------------------------|  
E|-3--------2--------------0--3----------------------------------0-|  

e|-0--2--3--5--3--2---0----------------0-0--9---6----0-------------|  
B|--------------------1----------------0-0--10--8----0----1--0-----|  
G|--------------------4-----------------------------------2--0-----|  
D|--------------------2--------------------------------------------|  
A|--------------------0-----------0--------------------------------|  
E|-3--------2--------------0--3------------------------------0-----|  

  

top 5 | michael jackson
top pop music
Outras músicas do artista letras do(a) Michael Jackson
3.
BEN
Top cifras »Top artistas »
Petaxxon Comunicação Online
Cifras.com.br - Melhor e mais completo site de cifras e tablaturas do Brasil
Mais de 1 milhão de acordes de músicas cadastradas desde 2003
As informações contidas no nosso site são colaborações de seus usuários e podem conter erros, sendo assim, não nos responsabilizamos sobre nenhuma destas.
close
menos
mais
close
Cor dos acordes:

Cor da letra:

 

save
close
close
 
redimensionar