Cifras e Tablaturas
Michael Jackson

Michael Jackson

Man In The Mirror Tablatura Verificada

Ano: 1995
Album : Greatest Hits: HIStory, Vol. 1
Compositor : (Michael Jackson)

Cifras Cancelar Versão de Impressão
cifras

Michael Jackson - Man In The Mirror

fixar na tela  
Exibindo: vídeo-aula ver clipes redimensionar
  Intro:  

e|----------------------------------------------|  
B|-----12ha----------7ha-------12ha---------7ha-|  
G|-----12ha----------7ha-------12ha---------7ha-|  
D|-----12ha----------7ha-------12ha---------7ha-|  
A|----------------------------------------------|  
E|-h10-------h10--h8-------h10-------h10--8-----|  

Parte 1: (2x)  

e|-------------------------------------------|  
B|-----------------------------------------3-|  
G|---4-0--2--4-3\2--0--4p0-3\2p0--2p0----0---|  
D|---5-0--4----------------------------2-----|  
A|-------------------------------------3-----|  
E|-3------2----0-----------------------------|  

e|---------------------|  
B|-0h1/3--2/3--1--0----|  
G|---------------------|  
D|-0h2/4--3/4--2--0----|  
A|---------------------|  
E|---------------------|  

Parte 2:  

e|------------------------------------------0------------------|  
B|-----1---1---3--------1---1---3-----1-1h3----1p0----------3--|  
G|---4---4---4--------4---4---4--------------------0----0------|  
D|----------------------------------------------------4---4----|  
A|-0----------------2---------------3-----------------2--------|  
E|-------------------------------------------------------------|  

e|---------------------------------0-----0--------------|  
B|-----1---1---3-------1---1---1h3---3-----3----------3-|  
G|---4---4---4-------4---4---4---------0-----0------5-5-|  
D|--------------------------------------------------5-5-|  
A|-0---------------2-----------------3---------3/-5-----|  
E|------------------------------------------------------|  

Chorus:  

e|------6/7------------------------------------------|  
B|------7/8-------8-10--10/11-10------------10-------|  
G|------------7-9-------------9-------10/11----------|  
D|---------------------------------------------------|  
A|---------------------------------------------------|  
E|-3-3------0-7---------9--------0-0--9/10-----10\---|  

e|------6/7--------------------------------|  
B|------7/8-------8-10--10/11-10-----------|  
G|------------7-9-------------9---12ha-----|  
D|--------------------------------12ha-----|  
A|-----------------------------------------|  
E|-3-3------0-7---------9---------10---10\-|  

e|-----6/7-----------------------------------------------------------|  
B|-----7/8-----8-8---8--8-8-10---6-6-6-x-6-6-6-x-6-6-6-x-6-6---------|  
G|-------------9-9-9----9-9--9---5-5-5-x-5-5-5-x-5-5-5-x-5-5-12ha----|  
D|------------------------8------4-4-4-x-4-4-4-x-4-4-4-x-4-4-12ha----|  
A|-----------------------------x-5---5-x-5---5-x-5---5-x-5-5---------|  
E|-3-3-----0-7-------8----9---------------------------------------h3-|  

  

top 5 | michael jackson
top pop music
Outras músicas do artista letras do(a) Michael Jackson
4.
BEN
Top cifras »Top artistas »
Petaxxon Comunicação Online
Cifras.com.br - Melhor e mais completo site de cifras e tablaturas do Brasil
Mais de 1 milhão de acordes de músicas cadastradas desde 2003
As informações contidas no nosso site são colaborações de seus usuários e podem conter erros, sendo assim, não nos responsabilizamos sobre nenhuma destas.
close
menos
mais
close
Cor dos acordes:

Cor da letra:

 

save
close
close
 
redimensionar