Cifras e Tablaturas
Mick Hart

Mick Hart

Butterfly

Cifras Cancelar Versão de Impressão Print

Mick Hart - Butterfly

Tom: C

  • 0:00 / 0:00
  			Tabbed by Christopher Brame,20/9/2001 
 
Butterfly written by Mick Hart,taken from 'kill yourself for love'ep &  
'still the flowers bloom'debut album 
 
This song is so beautiful.Its really the first song that blew me away 
when I saw Mick live for the first time. If theres any corrections please 
 feel free to e-mail them to me at [email protected],thanks,C1 
 
 
Intro- 
--------3---------3----3--3---- 
--1h/off-----1h/off----0--0------ 
--------------------------------- 
--------------------------------- 
--------------------------------- 
--3----------3------------------- 
 
 
Verse & chorus 
          C              Am        G              Fsus4 
-------------0-----------------------------------3------3----- 
--------1------1---------1---------3----------1----1----------- 
-----0----0------0----2----2----0----0-------2-------2--------- 
-------------------------------------------3---------------------- 
--3-----------------0-------------------------------------------- 
------------------------------3--------------------------------- 
 
 
Pre-chorus 
           Am           F 
-----------0------------1--------------- 
--------1----1----------1--------------- 
-----2----------2-------2--------------- 
------------------------3--------------- 
--0------------------------------------- 
----------------------------------------- 
 
 
Bridge 
                  Dm  
------------1--------3------------- 
---------3----3----3---3----------- 
------2----------2--------2-------- 
--0--------------------------------- 
------------------------------------- 
------------------------------------- 
 
 
The end is just a picking switch between C and F 
 
 
I cant stand it when people don't write the lyrics under tabs so here ya go 
 
 
V1 
So you go,and I wait 
Patientely,spirits wondering 
 
 
Pre-chorus 
Do You feel like I feel 
Are you scared  
What are you dreaming of 
 
 
Chorus 
Lie with me 
Kiss me in my sleep 
Share my soul tonight 
Precious butterfly 
 
 
V2 
Dressed in blue,golden energy 
In the softest voice 
Whispered love to me 
 
 
Pre-chorus 
Cradleing,nakedness 
With the moon and stars  
Watching over us 
 
 
Bridge 
As the candle burnt away 
You melt into my arms 

    	

enviado porenviado por: anônimo
cifra enviadaCorrigida por: sem correções
logo top cifrasComente
ico música do artistaMúsicas deste artista
ico curtiuCurtiu?
ico destaqueDestaque
Petaxxon Comunicação Online

Cifras.com.br - Melhor e mais completo site de cifras e tablaturas do Brasil Mais de 1 milhão de acordes de músicas cadastradas desde 2003
As informações contidas no nosso site são colaborações de seus usuários e podem conter erros, sendo assim, não nos responsabilizamos sobre nenhuma destas.

close
menos
mais
close
Cor dos acordes:

Cor da letra:

close
Alinhar acordes a direita Alinhar acordes a esquerda Alinhar acordes em baixo Alinhar acordes no topo
close
  Mostrar todos os acordes Esconder acordes muito fáceis Esconder acordes fáceis Esconder acordes intermediários
redimensionar
glossário