Cifras e Tablaturas
Mick Hart

Mick Hart

Face In The Water

Cifras Cancelar Versão de Impressão Print

Mick Hart - Face In The Water

Tom: Em

  • 0:00 / 0:00
  			Tuned down half a step. 
 
 
If a tab has a "?" above it means, screwed if I know what the 
Chord name is:) 
 
 
Intro Plays around with an Em. All the picking at the start 
I havnt had time to work out if I get some time I will. 
Verse  
 Em       C  Am           B7 
--------------------------2-------------- 
----------1--1------------0-------------- 
-------------2------------2-------------- 
--2-------2--2------------1-------------- 
--2-------3---------------2-------------- 
----------3------------------------------ 
 
 
Im here today you know Im not pretending 
 
 
 Em         C      Am               B7 
-------------------------------------2---- 
------------1------1-----------------0---- 
------------0------2-----------------2---- 
--2---------2------2-----------------1---- 
--2---------3------------------------2---- 
--0---------3----------------------------- 
 
 
Graceful in silence could it be that I've been faking? 
Pre chorus- 
            C                Em             C 
------------------------------------------------- 
------------1-------------------------------1---- 
------------0-------------------------------0---- 
------------2----------------2--------------2---- 
------------3----------------2--------------3---- 
------------3----------------0--------------3---- 
 
 
So for too long, so for too long so for too long 
 
 
            G   G/F#    Em     D       C 
------------3---3--------------2----------------- 
------------3---3--------------3-------1--------- 
------------0---2--------------2-------0--------- 
------------0---0-------2------0-------2--------- 
------------2---0-------2------2-------3--------- 
------------3---2-------0------0-------3--------- 
 
 
and I'm not together enough to pull it in 
Chorus- 
  G     G/F#    Em     D       C 
--3-----3--------------2----------------- 
--3-----3--------------3-------1--------- 
--0-----2--------------2-------0--------- 
--0-----0-------2--------------2--------- 
--2-----0-------2--------------3--------- 
--3-----2-------0--------------3--------- 
 
 
Please, please, please don't leave me this 
 
 
  G  G/F# Em     D       C 
--3--3-----------2----------------- 
--3--3-----------3-------1--------- 
--0--2-----------2-------0--------- 
--0--0----2--------------2--------- 
--2--0----2--------------3--------- 
--3--2----0--------------3--------- 
 
 
Dont you miss me even for something 
 
 
Ok thats pretty much the whole song except for the middle 8 which I 
Believe to be: 
   
  C           D/G         G                      Fdim 
--------------------------3----------------------4--------- 
--1-----------3-----------3----------------------3--------- 
--0-----------0-----------0----------------------4--------- 
--2-----------4-----------0----------------------3--------- 
--3-----------5-----------2-------------------------------- 
--3-----------5-----------3-------------------------------- 
 
 
Drift off in sleep as it stretches by for a little change 
  
 C 
------------------------ 
-1---------------------- 
-0---------------------- 
-2---------------------- 
-3---------------------- 
-3---------------------- 
But never enough 
 
 
The end of the song is played the same as the chorus. 
And there ya go and all thats left are the song lyrics. 
 
 
 
-----lyrics----- 
I'm here today 
you know I'm not pretending 
graceful in silence 
could it be that I've been faking?  
so for too long, suffer too long 
so for too long 
and I'm not together enough to pull it in 
 
 
 
Please, please, please don't leave me this 
Don't you miss me even for something? 
 
 
Still so alone 
I feel your breath is calling 
lost in your mirror 
this love is not that sacred 
 
 
no more no love, no more no luck 
no more no love 
but still can't gravitate to anything else 
 
 
~ chorus ~ 
 
 
 
Drift off in sleep as it stretches by 
For a little change 
but never enough 
 
 
Face in the water 
sometimes it's good looking in 
Floating on empty 
today was drifting... 
 
 
So so far down, wished I could drown 
wished I could drown 
but I'm not together enough to pull it off 
 
 
~ chorus ~ rpt 
 
 
Don't drown 
Don't drown 
 
 
please, please, please don't leave me this 
 
 
 
If anyone has any comments or corrections or ya just wanna chat give 
me a buzz at [email protected] 

    	

enviado porenviado por: anônimo
cifra enviadaCorrigida por: sem correções
logo top cifrasComente
ico música do artistaMúsicas deste artista
ico curtiuCurtiu?
ico destaqueDestaque
Petaxxon Comunicação Online

Cifras.com.br - Melhor e mais completo site de cifras e tablaturas do Brasil Mais de 1 milhão de acordes de músicas cadastradas desde 2003
As informações contidas no nosso site são colaborações de seus usuários e podem conter erros, sendo assim, não nos responsabilizamos sobre nenhuma destas.

close
menos
mais
close
Cor dos acordes:

Cor da letra:

close
Alinhar acordes a direita Alinhar acordes a esquerda Alinhar acordes em baixo Alinhar acordes no topo
close
  Mostrar todos os acordes Esconder acordes muito fáceis Esconder acordes fáceis Esconder acordes intermediários
redimensionar
glossário