Cifras e Tablaturas
Mighty Oaks

Mighty Oaks

Like An Eagle

Cifras Cancelar Versão de Impressão

Mighty Oaks - Like An Eagle

Tom:

  			Intro 

e|-------------------------------------------------|---------------------------------------------------| 
B|----------1-----------1------------1-----------1-|----------1-----------1-----------1-----------1----| 
G|----2-----------2------------2-----------2-------|----0-----------0-----------0-----------0----------| 
D|-------2-----------2------------2-----------2----|-------0-----------0-----------0-----------0-------| 
A|-0-----------0-----------0------------0----------|-2-----------2-----------2-----------2-------------| 
E|-------------------------------------------------|---------------------------------------------------| 

e|-------------------------------------------------|---------------------------------------------------| 
B|----------1-----------1------------1-----------1-|----------1-----------1-----------1-----------1----| 
G|----0-----------0------------0-----------0-------|----0-----------0-----------0-----------0----------| 
D|-------2-----------2------------2-----------2----|-------2-----------2-----------2-----------2-------| 
A|-3-----------3-----------3------------3----------|-3-----------3-----------3-----------3-------------| 
E|-------------------------------------------------|---------------------------------------------------| 

e|-------------------------------------------------|---------------------------------------------------| 
B|----------1-----------1------------1-----------1-|----------1-----------1-----------1-----------1----| 
G|----2-----------2------------2-----------2-------|----0-----------0-----------0-----------0----------| 
D|-------2-----------2------------2-----------2----|-------0-----------0-----------0-----------0-------| 
A|-0-----------0-----------0------------0----------|-2-----------2-----------2-----------2-------------| 
E|-------------------------------------------------|---------------------------------------------------| 

e|-------------------------------------------------|----------------------------------1--0--------0----| 
B|----------1-----------1------------1-----------1-|----------1-----------1-----------1-----------1----| 
G|----0-----------0------------0-----------0-------|----0-----------0-----------0-----------0----------| 
D|-------2-----------2------------2-----------2----|-------2-----------2-----------2-----------2-------| 
A|-3-----------3-----------3------------3----------|-3-----------3-----------3-----------3-------------| 
E|-------------------------------------------------|---------------------------------------------------| 

Repeat till the end of the song 

verse 1 

Well I've been spending my days with my thumb in the air 
People been telling me son well you ain't getting nowhere 
I shuffle my feet purely out of despair 
And now I'm moving to you this I know my dear 

verse 2 

Well I see fields of green dead and yellow too. 
Waters bleeding red oh and seas of blue. 
I tend to close my eyes and let the wind take me their 
Now I'm lost and moving without a care 
    	
fixar
fixar inscrever-se

enviado porenviado por: renejunior
cifra enviadaCorrigida por: sem correções
logo top cifrasComente
ico música do artistaMúsicas deste artista
ico curtiuCurtiu?
ico destaqueDestaque
Petaxxon Comunicação Online

Cifras.com.br - Melhor e mais completo site de cifras e tablaturas do Brasil Mais de 1 milhão de acordes de músicas cadastradas desde 2003
As informações contidas no nosso site são colaborações de seus usuários e podem conter erros, sendo assim, não nos responsabilizamos sobre nenhuma destas.

close
menos
mais
close
Cor dos acordes:

Cor da letra:

close
Alinhar acordes a direita Alinhar acordes a esquerda Alinhar acordes em baixo Alinhar acordes no topo
close
  Mostrar todos os acordes Esconder acordes muito fáceis Esconder acordes fáceis Esconder acordes intermediários
redimensionar
glossário