Cifras e Tablaturas
Cifras Cancelar Versão de Impressão
cifras

Mike Bloomfield - Stop

fixar na tela  
Exibindo: vídeo-aula ver clipes redimensionar

Tom:

E

ver outros tons
                                                      | --- pm --- | 
      E7 
e|----------------------------------|------------------------------| 
B|----------------------------------|------------------------------| 
G|----------------------------------|------------------------------| 
D|----------------------------------|------------------------------| 
A|----------------------------------|-------------------5-----5h7--| 
E|----------------------------------|----------------7-----7-------| 

     | pm |             | -- pm -- |  | pm |            | ---- pm ---- | 
      E7#9 
e|-----------------------------------|-----------------------------------| 
B|----------8\------8----------------|--------8\-------------------------| 
G|----------7\------7----------------|--------7\------7------------------| 
D|----------6\------6----------------|--------6\------6------------------| 
A|----------7\------7-----5-----5h7--|--------7\--------------5-----5h7--| 
E|----0--0-------------------7-------|--0----------------5/7-----7-------| 

     | pm |            | -- pm --- |    | pm |           | --- pm --- | 
e|-----------------------------------|---------------------------------| 
B|----------8\------8----------------|--------8\------8----------------| 
G|----------7\------7----------------|--------7\------7----------------| 
D|----------6\------6----------------|--------8\------6----------------| 
A|----------7\------------5-----5h7--|--------7\------7------5----5h7--| 
E|----0--0--0----------7--0--7-------|--0--0--------------7----7-------| 

     | pm |           | --- pm --- |  | pm | 
e|-----------------------------------|---------------------------------| 
B|----------8\------8----------------|--------8\-----------------------| 
G|----------7\------7----------------|--------7\-----------------------| 
D|----------6\------6----------------|--------6\-----------------------| 
A|----------7\------7-----5-----5h7--|--------7\-----------------------| 
E|----0--0--0----------7-----7-------|--0------------------------------| 

                                        D           A      
e|----------12-----------------------|---------------------------------------| 
B|----12----12-----------------------|---------------------------------------| 
G|----14b16--------------------------|--14b16r14p12-14-12-14-14b16r14p12-14--| 
D|-----------------------------------|---------------------------------------| 
A|-----------------------------------|---------------------------------------| 
E|-----------------------------------|---------------------------------------| 

              ~~~~~~~~                           ~~~~~~~ 
      E7#9 
e|---------------------------------12-------|-----------12-----------------------| 
B|---------------------------------12--15b--|-b17----------15p12--15b17----------| 
G|----12---------------------14b16----------|------------------------------------| 
D|-------14-14-------(14)\------------------|------------------------------------| 
A|------------------------------------------|------------------------------------| 
E|------------------------------------------|------------------------------------| 

        ~~~~~~~ 
                                   D          A 
e|------------------------------|-------------6------------------| 
B|----8p0----7b9r7-p5-------5h--|-h7------5-8---9b11--5h7p5---5--| 
G|------------------------------|-----7b9-------------------6----| 
D|------------------------------|--------------------------------| 
A|------------------------------|--------------------------------| 
E|------------------------------|--------------------------------| 

                         hold hold hold hold 
       ~~~~              bend bend bend bend 
      E7#9 
e|--------------------------7----7----7----7--| 
B|----5----/11\-----8-10b12--(12)-(12)-(12)---| 
G|--------------7/9---------------------------| 
D|--------------------------------------------| 
A|--------------------------------------------| 
E|--------------------------------------------| 

                    bss                                      ~~~~~~~~           ~~~~~~ 
e|-----------------------------------------------12--|---------------12-------------------| 
B|----10b12r10p8-10-8-10-10p8---8-------------12-----|--15b17-----------15-12-15------x---| 
G|----------------------------9---9-(9)/14b16--------|--------------------------------x---| 
D|---------------------------------------------------|------------------------------------| 
A|---------------------------------------------------|------------------------------------| 
E|---------------------------------------------------|------------------------------------| 

                                ~~~~~~ 
      D                    A 
e|----------------12----12------------12--------------| 
B|----15b17r15-------15----15b17---------15-12--------| 
G|---------------------------------------------12-14--| 
D|----------------------------------------------------| 
A|----------------------------------------------------| 
E|----------------------------------------------------| 

      bss                                ~~~~~~ 
      E7#9 
e|-------------------------------12------------12----12--| 
B|----------------------------12----15b17---------15-----| 
G|----12-14-12----------14b16----------------------------| 
D|-------------14-14-------------------------------------| 
A|-------------------------------------------------------| 
E|-------------------------------------------------------| 

e|------15b18-r17-b18----12h15p12----12----12--| 
B|--------------------------------15----15-----| 
G|---------------------------------------------| 
D|---------------------------------------------| 
A|---------------------------------------------| 
E|---------------------------------------------| 

                                               ~~~~~~ 
                                              D              A 
e|---------6-------------------------------|----------------------------------| 
B|----8b11---8b11--5-8-5---5---5--(5)/-5b--|-b7------5b7r5p3-5h8p5---5h8p5----| 
G|-----------------------6-----------------|-----------------------7-------7--| 
D|-----------------------------------------|----------------------------------| 
A|-----------------------------------------|----------------------------------| 
E|-----------------------------------------|----------------------------------| 

                       ~~~~~~             ~~~~~~     ~~~~~~~~        ~~ 
      E7#9 
e|-----------------------------------|---------------------------------| 
B|----8p5-5--(5)\-5/7b9---------10b--|-b12------10b12--------10b11b12--| 
G|-----------------------------------|---------------------------------| 
D|---------------------------0-------|---------------------------------| 
A|-----------------------------------|---------------------------------| 
E|-----------------------------------|---------------------------------| 

      ~~~~~~        ~~~~                            ~~~~~~~~ 
                                         D                             A 
e|------------------------------------|--10-----------------10------------------10--------| 
B|---(12)---10b11b12--------------10--|-----13-13b15-----------13-10------13b15----13-10--| 
G|--------------------------12b14-----|---------------------------------------------------| 
D|------------------------------------|---------------------------------------------------| 
A|------------------------------------|---------------------------------------------------| 
E|------------------------------------|---------------------------------------------------| 

               ~~~~~~~~~~~~           ~~~~~~~~~~ 
      E7#9 
e|--------10---------------10/12-12-----|-(12)--12--------12--------16-17-17b19--| 
B|--------13b15------------------15b17--|-(17)-----15b17-----12/-----------------| 
G|--------------------------------------|----------------------------------------| 
D|--------------------------------------|----------------------------------------| 
A|--------------------------------------|----------------------------------------| 
E|--------------------------------------|----------------------------------------| 

                                         ~~~~~~             ~~~~~~~~  ~~~~~~~~ 
                                                       D            A 
e|---(19)r17p16-17--16--17p16----16p15\14-----------|-----------------------------------| 
B|----------------------------17---------------15b--|-b17r15--------14--------------12--| 
G|--------------------------------------------------|-------------------------14b16-----| 
D|--------------------------------------------------|-----------------------------------| 
A|--------------------------------------------------|-----------------------------------| 
E|--------------------------------------------------|-----------------------------------| 
  
                                               hold 
           ~~~~                 ~~~~~~~~~~~    bend~~~     ~~~  
      E7#9 
e|------------------------------------|----12---------12-------------| 
B|-------------------12----15b17------|-------15b17-----(17)--r15----| 
G|----14-13----14b16------------------|------------------------------| 
D|------------------------------------|------------------------------| 
A|------------------------------------|------------------------------| 
E|------------------------------------|------------------------------| 

                    ~~~~~~~~                                      ~~~~~~ 
                               D        A                        E7#9 
e|--------------------------|---------------------------------|---------------------------| 
B|----7b9---(9)r7--5--------|--5h7--(7)\-----5-7b9-(9)r7p5----|---------------------------| 
G|--------------------------|------------4/6---------------6--|--4------4b6---r4-4-3-2-1--| 
D|--------------------------|---------------------------------|---------------------------| 
A|--------------------------|---------------------------------|---------------------------| 
E|--------------------------|---------------------------------|---------------------------| 

                                             ~~~~~~~~~~~~~~~~~~~ 
e|-------------------------------------|----------------------------| 
B|-------------------------------------|----------------------------| 
G|----2p1------------------------------|----------------------------| 
D|--------2--2----0h2---2--------------|----------------------------| 
A|--------------------4---4-2-4-2---2--|--5/7----------------(7)\---| 
E|--------------------------------4----|----------------------------| 

      with pick & fingers                    let                  let 
                                      | pm | ring  | --- pm --- | ring 
      D               A                 E7#9 
e|-----------------------------------|---------------------------------------| 
B|----5/7--(7)--------7\5--(5)/------|---------------------------------------| 
G|-----------------------------------|----------------------------9----------| 
D|----5/7--(7)--------7\5--(5)/------|-------9--------------------9h11-------| 
A|-----------------------------------|-------9h11----------------------9h11--| 
E|-----------------------------------|--0-----------0--0--0----0-------------| 

     | pm |         | - pm - |   pm 
e|-----------------------------------------| 
B|----------8------------------------------| 
G|----------7---------------------------7--| 
D|----------6-----6------------------------| 
A|-------------7--7-----------7------------| 
E|----0--0-----------0--0--0-----0---------| 

Organ solo 
| E7#9             | D       A        | E7#9             | E7#9             | 
| E7#9             | D       A        | E7#9             | E7#9             | 
| E7#9             | D       A        | E7#9             | E7#9             | 
| E7#9             | D       A        | E7#9             | E7#9             | 
| E7#9             | D       A        | E7               | E7               | 
| E7               | D       A        | E                | E                | 

    with pick & fingers 
                                |  let ring  |                 |  let ring  |    ~~~~~~~~ 
      E                          D           A                E 
e|----------------------------|------5---------------------|-----------------------4-----| 
B|----7/9--(9)----------------|--5/7------7--7\5--(5)-5-5--|--5/9--(9)------x------------| 
G|----------------------------|----------------------------|-------------------2/4----4--| 
D|----7/9--(9)----------------|--5/7----7-7--7\5--(5)-5-5--|--5/9--(9)-------------------| 
A|----------------------------|----------------------------|-----------------------------| 
E|----------------------------|----------------------------|--------------0--------------| 

                                | let ring |              | let ring | | - let ring - | 
    ~~~~~                        ~~~~~~~~~~  
                                                            D           A 
e|----4--4--------------------|----4------------x--------|----2-----------5-------5-----| 
B|----------------------------|-----------------x--------|--------0---------------------| 
G|-------4----------------2/--|-/4---4----------x----1/--|-/2---2---2-2/6----6-6----6\--| 
D|----------------------------|--------------------------|------------------------------| 
A|----------------------------|--------------------------|------------------------------| 
E|----------------------------|--------------------------|------------------------------| 

                                                                        with pick 
    let ring let ring | let ring  |       | -- let ring --  |            
      E 
e|------4-----2------0--------0----|---------4--------4-----4/12-12--|--14/16-------------| 
B|---------------------------------|---------------------------------|--15/17-------------| 
G|---\4---4\2----0h1------------0--|-(0)-2/4----4--4-----4--4/13-13--|--------------------| 
D|----------------------2-(2)------|---------------------------------|--------------------| 
A|---------------------------------|---------------------------------|--------------------| 
E|---------------------------------|---------------------------------|--------------------| 

      D            A                E 
e|--------16\14----14\12----12\--|-\10----10\9------9\7----7\5--|--4----4\2----0------0---| 
B|--------17\15----15\14----14\--|-\12----12\10----10\9----9\7--|--5----5\3----3\2----0---| 
G|-------------------------------|------------------------------|-------------------------| 
D|-------------------------------|------------------------------|-------------------------| 
A|-------------------------------|------------------------------|-------------------------| 
E|-------------------------------|------------------------------|-------------------------| 

    with pick & fingers 
     | ---------------- let ring ----------------- | 
                                     D                  A 
e|---------4----4-----4--------4--|-------2-----2-------5-----3-----| 
B|----0------------------0--------|---------------------------------| 
G|----2/4----------4--------4-----|--4/2-----2-----2/6-----6--4--4--| 
D|--------------------------------|---------------------------------| 
A|--------------------------------|---------------------------------| 
E|--------------------------------|---------------------------------| 

             let                    let         let                       let 
     | pm |  ring          pm       ring     pm ring             pm       ring  pm 
      E 
e|----------------------------------------|-----------------------------------------------| 
B|----------------------------------------|-----------------------------------------------| 
G|----------9-----------------------9-----|-----9-----------9-------------9--------9------| 
D|----------9h11--------9-----------9h11--|-----9h11--------9-------------9h11--------11--| 
A|-------2--------9h11--------9h11--------|-----------9h11----------9h11------------------| 
E|----0--0-----------------0--------------|--0-------------------0--------------0---------| 

            let               let       let                let     let 
            ring              ring      ring               ring    ring 
                                                   D               A 
e|----------------------------------------------|--------------------------------------| 
B|----------9-----------------------------------|--------------------------------------| 
G|----------9h11--------------7---------7----x--|----------7----7--5-------------------| 
D|----9h11--------9h11--------7h9-------7h9--x--|----------7h9--7--5h7-------5h7-------| 
A|----------------------9h11-------7h9----------|-----7h9---------------5h7-------5h7--| 
E|----------------------------------------------|--0-----------------------------------| 

      pm                              | pm |                   | - pm -- | 
      E7#9 
e|----------------------------------|--------------------------------------| 
B|---------8------x--8--x-----------|---------------------8----------------| 
G|---------7------x--7--x-----------|--------7------------7----------------| 
D|---------6------x--6--x-----------|--------6------------6----------------| 
A|---------7------x--7--x-----------|--------7------------------------5/7--| 
E|----0------------------------5h7--|--0--0---------------------5--7-------| 

     | pm |             | ---- pm ----- |   | pm |             | --- pm --- | 
                                             D            A 
e|----------------------------------------|-----------------------------------| 
B|----------8--x----8---------------------|--------8------x--8----------------| 
G|----------7--x----7---------------------|--------7------x--7----------------| 
D|----------6--x----6---------------------|--------6------x--6----------------| 
A|-----------------------------5-----5h7--|--------7------x--------5-----5h7--| 
E|----0--0---------------5--7-----7-------|--0--0---------------5-----7-------| 

     | pm |              | --- pm --- |   | pm |              | --- pm ---- | 
      E7#9 
e|--------------------------------------|------------------------------------| 
B|----------8----------8----------------|--------8----------8----------------| 
G|----------7----------7----------------|--------7----------7----------------| 
D|----------6----------6----------------|--------6----------6----------------| 
A|----------7----------------5-----5h7--|--------7----------------5-----5h7--| 
E|----0--0----------------7-----7-------|--0--0----------------7-----7-------| 

     | pm |              | --- pm --- |    | pm |                 bss pm 
                                           D             A 
e|--------------------------------------|---------------------------------| 
B|--------------------------------------|----------------------2----------| 
G|----------7--x--x----7----------------|--------x----7-------------------| 
D|----------6--x--x----6----------------|--------x----6-------------------| 
A|----------7--x--x----7-----5-----5h7--|--------x----7--0--0-----3--0h2--| 
E|----0--0-------------0--7-----7-------|--0--0---------------------------| 

     | pm |                     | - pm - |  | pm |                  
      E7#9 
e|----------------------------------------|---------------------------------| 
B|----------------------8----8------------|--------8------8----8------------| 
G|----------7------7----7----7------------|--------7------7----7------------| 
D|----------6------6----6----6---------5--|--------6------6----6------------| 
A|----------7------7----7----7----5h7-----|--------7------7----7------------| 
E|----0--0--------------------------------|--0--0---------------------------| 


************************************ 

| h    Hammer-on 
| \    Slide down 
| /    Slide up 
| p    Pull-off 
| r    Release 
| b    Bend 
| ~    Vibrato 
| (n)  Ghost note 
| x    Dead note 


************************************ 
  

cifra enviadasem correções
enviado porenviada por:hebealmeida
Tom: E ver outros instrumentos
Stop Tom DD(um tom abaixo)
Stop Tom D#D#(meio tom abaixo)
Stop Tom EE(tom original)
Stop Tom FF(meio tom acima)
Stop Tom F#F#(um tom acima)
Subir 1 tomSubir 1/2Descer 1 tomDescer 1/2
top 5 | mike bloomfield
top blues
Outras músicas do artista letras do(a) Mike Bloomfield
3.
Stop
Top cifras »Top artistas »
Petaxxon Comunicação Online
Cifras.com.br - Melhor e mais completo site de cifras e tablaturas do Brasil
Mais de 1 milhão de acordes de músicas cadastradas desde 2003
As informações contidas no nosso site são colaborações de seus usuários e podem conter erros, sendo assim, não nos responsabilizamos sobre nenhuma destas.
close
menos
mais
close
Cor dos acordes:

Cor da letra:

 

save
close
close
 
redimensionar