Cifras e Tablaturas
Millencolin

Millencolin

True Brew

Cifras Cancelar Versão de Impressão
cifras

Millencolin - True Brew

fixar na tela  
Exibindo: vídeo-aula ver clipes redimensionar
  
Intro 1 

e|-----------------|-----------------|-----------------|-------------------| 
B|-6---6-6---6---5-|-6---6-6---6---5-|-6---6-6---6---5-|-6-----------------| 
G|-5---5-5---5---5-|-5---5-5---5---5-|-5---5-5---5---5-|-5---10-10---10-10-| 
D|-----------------|-----------------|-----------------|-----x--x----x--x--| 
A|-----------------|-----------------|-----------------|-----8--8----8--8--| 
E|-----------------|-----------------|-----------------|-------------------| 

Intro 2 

Guitar 1 
e|-----------------|-----------------|-----------------|------------------| 
B|-----------------|-----------------|-----------------|------------------| 
G|-9---9-9---9---7-|-9---9-9---9---7-|-9---9-9---9---7-|-9---9-9---9/12---| 
D|-x---x-x---x---x-|-x---x-x---x---x-|-x---x-x---x---x-|-x---x-x---x-x----| 
A|-7---7-7---7---5-|-7---7-7---7---5-|-7---7-7---7---5-|-7---7-7---7/10---| 
E|-----------------|-----------------|-----------------|------------------| 

e|----------------------|----------------------|-----------------|-----------------| 
B|----------------------|----------------------|-----------------|-----------------| 
G|-14---14-14---14---12-|-14---14-14---14\12---|-5---5-5---5---7-|-9---9-9---9---7-| 
D|-x----x--x----x----x--|-x----x--x----x--x----|-x---x-x---x---x-|-x---x-x---x---x-| 
A|-12---12-12---12---10-|-12---12-12---12\10---|-3---3-3---3---5-|-7---7-7---7---5-| 
E|----------------------|----------------------|-----------------|-----------------| (All x2) 

Guitar 2 
e|-----------------|-----------------|-----------------|-----------------| 
B|-----------------|-----------------|-----------------|-----------------| 
G|-5-5-5-5-5-5-5-5-|-5-5-5-5-5-5-5-5-|-5-5-5-5-5-5-5-5-|-5-5-5-5-5-5-5-5-| 
D|-5-5-5-5-5-5-5-5-|-5-5-5-5-5-5-5-5-|-5-5-5-5-5-5-5-5-|-5-5-5-5-5-5-5-5-| 
A|-3-3-3-3-3-3-3-3-|-3-3-3-3-3-3-3-3-|-3-3-3-3-3-3-3-3-|-3-3-3-3-3-3-3-3-| 
E|-----------------|-----------------|-----------------|-----------------| 

e|-----------------|-----------------|-----------------|-----------------| 
B|-----------------|-----------------|-----------------|-----------------| 
G|-----------------|-----------------|-----------------|-----------------| 
D|-7-7-7-7-7-7-7-7-|-7-7-7-7-7-7-7-7-|-3-3-3-3-3-3-3-3-|-3-3-3-3-3-3-3-3-| 
A|-7-7-7-7-7-7-7-7-|-7-7-7-7-7-7-7-7-|-3-3-3-3-3-3-3-3-|-3-3-3-3-3-3-3-3-| 
E|-5-5-5-5-5-5-5-5-|-5-5-5-5-5-5-5-5-|-1-1-1-1-1-1-1-1-|-1-1-1-1-1-1-1-1-| (All x2) 

verse 1 

Guitar 1 
e|-----------------|-----------------|-----------------|-----------------| 
B|-----------------|-----------------|-----------------|-----------------| 
G|-9---------------|-----------------|-----------------|-----------------| 
D|-x---------------|-----------------|-----------------|-----------------| 
A|-7---------------|-----------------|-----------------|-----------------| 
E|-----------------|-----------------|-----------------|-----------------| 

e|-----------------|-----------------|-----------------|-----------------| 
B|-----------------|-----------------|-----------------|-----------------| 
G|-----------------|-----------------|-----------------|--------10-10-10-| 
D|-----------------|-----------------|-----------------|--------x--x--x--| 
A|-----------------|-----------------|-----------------|--------8--8--8--| 
E|-----------------|-----------------|-----------------|-----------------| 

e|-----------------|-----------------|-----------------|-----------------| 
B|-----------------|-----------------|-----------------|-----------------| 
G|-9---9-9---9---9-|-9---9-9---9---9-|-7---7-7---7---7-|-7---7-7---7---7-| 
D|-x---x-x---x---x-|-x---x-x---x---x-|-x---x-x---x---x-|-x---x-x---x---x-| 
A|-7---7-7---7---7-|-7---7-7---7---7-|-5---5-5---5---5-|-5---5-5---5---5-| 
E|-----------------|-----------------|-----------------|-----------------| 

e|-----------------|-----------------|-----------------|-----------------| 
B|-----------------|-----------------|-----------------|-----------------| 
G|-5---5-5---5---5-|-5---5-5---5---5-|-9---9-9---9---9-|-9---9-9---9---9-| 
D|-x---x-x---x---x-|-x---x-x---x---x-|-x---x-x---x---x-|-x---x-x---x---x-| 
A|-3---3-3---3---3-|-3---3-3---3---3-|-7---7-7---7---7-|-7---7-7---7---7-| 
E|-----------------|-----------------|-----------------|-----------------| 

e|-----------------|-----------------| 
B|-----------------|-----------------| 
G|-5---5-5---5---5-|-5---5-5---5---5-| 
D|-x---x-x---x---x-|-x---x-x---x---x-| 
A|-3---3-3---3---3-|-3---3-3---3---3-| 
E|-----------------|-----------------| 

e|-----------------|-----------------|-----------------|-----------------| 
B|-----------------|-----------------|-----------------|-----------------| 
G|-7---7-7---7---7-|-7---7-7---7---7-|-7---7-7---7---7-|-7---7-7---7---5-| 
D|-x---x-x---x---x-|-x---x-x---x---x-|-x---x-x---x---x-|-x---x-x---x---x-| 
A|-5---5-5---5---5-|-5---5-5---5---5-|-5---5-5---5---5-|-5---5-5---5---3-| 
E|-----------------|-----------------|-----------------|-----------------| 

Guitar 2 
e|-----------------|-----------------|-----------------|-----------------| 
B|-----------------|-----------------|-----------------|-----------------| 
G|-----------------|-----------------|-----------------|-----------------| 
D|-7-7-7-7-7-7-7-7-|-7-7-7-7-7-7-7-7-|-5-5-5-5-5-5-5-5-|-5-5-5-5-5-5-5-5-| 
A|-7-7-7-7-7-7-7-7-|-7-7-7-7-7-7-7-7-|-5-5-5-5-5-5-5-5-|-5-5-5-5-5-5-5-5-| 
E|-5-5-5-5-5-5-5-5-|-5-5-5-5-5-5-5-5-|-3-3-3-3-3-3-3-3-|-3-3-3-3-3-3-3-3-| 

e|-----------------|-----------------|-----------------|-----------------| 
B|-----------------|-----------------|-----------------|-----------------| 
G|-----------------|-----------------|-5-5-5-5-5-5-5-5-|-5-5-5-5-5-5-5-5-| 
D|-3-3-3-3-3-3-3-3-|-3-3-3-3-3-3-3-3-|-5-5-5-5-5-5-5-5-|-5-5-5-5-5-5-5-5-| 
A|-3-3-3-3-3-3-3-3-|-3-3-3-3-3-3-3-3-|-3-3-3-3-3-3-3-3-|-3-3-3-3-3-3-3-3-| 
E|-1-1-1-1-1-1-1-1-|-1-1-1-1-1-1-1-1-|-----------------|-----------------| (x2) 

e|-----------------|-----------------| 
B|-----------------|-----------------| 
G|-----------------|-----------------| 
D|-3-3-3-3-3-3-3-3-|-3-3-3-3-3-3-3-3-| 
A|-3-3-3-3-3-3-3-3-|-3-3-3-3-3-3-3-3-| 
E|-1-1-1-1-1-1-1-1-|-1-1-1-1-1-1-1-1-| 

e|-----------------|-----------------|-----------------|-----------------| 
B|-----------------|-----------------|-----------------|-----------------| 
G|-----------------|-----------------|-----------------|-----------------| 
D|-5-5-5-5-5-5-5-5-|-5-5-5-5-5-5-5-5-|-5-5-5-5-5-5-5-5-|-5-5-5-5-5-5-5-5-| 
A|-5-5-5-5-5-5-5-5-|-5-5-5-5-5-5-5-5-|-5-5-5-5-5-5-5-5-|-5-5-5-5-5-5-5-5-| 
E|-3-3-3-3-3-3-3-3-|-3-3-3-3-3-3-3-3-|-3-3-3-3-3-3-3-3-|-3-3-3-3-3-3-3-3-| 

Chorus 1 

Guitar 1 
e|-----------------|--------------------|-----------------|-------------------| 
B|-----------------|--------------------|-----------------|-------------------| 
G|-9-9-9-9-9-9-9-9-|-9-9-9-9-9-12-12-12-|-9-9-9-9-9-9-9-9-|-9-9-9-9-9-9-12-12-| 
D|-x-x-x-x-x-x-x-x-|-x-x-x-x-x-x--x--x--|-x-x-x-x-x-x-x-x-|-x-x-x-x-x-x-x--x--| 
A|-7-7-7-7-7-7-7-7-|-7-7-7-7-7-10-10-10-|-7-7-7-7-7-7-7-7-|-7-7-7-7-7-7-10-10-| 
E|-----------------|--------------------|-----------------|-------------------| 

e|-------------------------|-------------------------|-----------------|-----------------| 
B|-------------------------|-------------------------|-----------------|-----------------| 
G|-14-14-14-14-14-14-14-14-|-14-14-14-14-14-14-12-12-|-5-5-5-5-5-5-5-7-|-9-9-9-9-9-9-7-7-| 
D|-x--x--x--x--x--x--x--x--|-x--x--x--x--x--x--x--x--|-x-x-x-x-x-x-x-x-|-x-x-x-x-x-x-x-x-| 
A|-12-12-12-12-12-12-12-12-|-12-12-12-12-12-12-10-10-|-3-3-3-3-3-3-3-5-|-7-7-7-7-7-7-5-5-| 
E|-------------------------|-------------------------|-----------------|-----------------| (All x2) 

Guitar 2 
e|-----------------|-----------------|-----------------|-----------------| 
B|-----------------|-----------------|-----------------|-----------------| 
G|-5-5-5-5-5-5-5-5-|-5-5-5-5-5-5-5-5-|-5-5-5-5-5-5-5-5-|-5-5-5-5-5-5-5-5-| 
D|-5-5-5-5-5-5-5-5-|-5-5-5-5-5-5-5-5-|-5-5-5-5-5-5-5-5-|-5-5-5-5-5-5-5-5-| 
A|-3-3-3-3-3-3-3-3-|-3-3-3-3-3-3-3-3-|-3-3-3-3-3-3-3-3-|-3-3-3-3-3-3-3-3-| 
E|-----------------|-----------------|-----------------|-----------------| 

e|-----------------|-----------------|-----------------|-----------------| 
B|-----------------|-----------------|-----------------|-----------------| 
G|-----------------|-----------------|-----------------|-----------------| 
D|-7-7-7-7-7-7-7-7-|-7-7-7-7-7-7-7-7-|-3-3-3-3-3-3-3-3-|-3-3-3-3-3-3-3-3-| 
A|-7-7-7-7-7-7-7-7-|-7-7-7-7-7-7-7-7-|-3-3-3-3-3-3-3-3-|-3-3-3-3-3-3-3-3-| 
E|-5-5-5-5-5-5-5-5-|-5-5-5-5-5-5-5-5-|-1-1-1-1-1-1-1-1-|-1-1-1-1-1-1-1-1-| (All x2) 

verse 2 

Guitar 1 
e|-----------------|-----------------|-----------------|-----------------| 
B|-----------------|-----------------|-----------------|-----------------| 
G|-9---------------|-----------------|-----------------|-----------------| 
D|-x---------------|-----------------|-----------------|-----------------| 
A|-7---------------|-----------------|-----------------|-----------------| 
E|-----------------|-----------------|-----------------|-----------------| 

e|-----------------|-----------------|-----------------|-----------------| 
B|-----------------|-----------------|-----------------|-----------------| 
G|-----------------|-----------------|-----------------|--------10-10-10-| 
D|-----------------|-----------------|-----------------|--------x--x--x--| 
A|-----------------|-----------------|-----------------|--------8--8--8--| 
E|-----------------|-----------------|-----------------|-----------------| 

e|-----------------|-----------------|-----------------|-----------------| 
B|-----------------|-----------------|-----------------|-----------------| 
G|-9---9-9---9---9-|-9---9-9---9---9-|-7---7-7---7---7-|-7---7-7---7---7-| 
D|-x---x-x---x---x-|-x---x-x---x---x-|-x---x-x---x---x-|-x---x-x---x---x-| 
A|-7---7-7---7---7-|-7---7-7---7---7-|-5---5-5---5---5-|-5---5-5---5---5-| 
E|-----------------|-----------------|-----------------|-----------------| 

e|-----------------|-----------------|-----------------|-----------------| 
B|-----------------|-----------------|-----------------|-----------------| 
G|-5---5-5---5---5-|-5---5-5---5---5-|-9---9-9---9---9-|-9---9-9---9---9-| 
D|-x---x-x---x---x-|-x---x-x---x---x-|-x---x-x---x---x-|-x---x-x---x---x-| 
A|-3---3-3---3---3-|-3---3-3---3---3-|-7---7-7---7---7-|-7---7-7---7---7-| 
E|-----------------|-----------------|-----------------|-----------------| 

e|-----------------|-----------------| 
B|-----------------|-----------------| 
G|-5---5-5---5---5-|-5---5-5---5---5-| 
D|-x---x-x---x---x-|-x---x-x---x---x-| 
A|-3---3-3---3---3-|-3---3-3---3---3-| 
E|-----------------|-----------------| 

e|-----------------|-----------------|-----------------|-----------------| 
B|-----------------|-----------------|-----------------|-----------------| 
G|-7---7-7---7---7-|-7---7-7---7---7-|-7---7-7---7---7-|-7---7-7---7---5-| 
D|-x---x-x---x---x-|-x---x-x---x---x-|-x---x-x---x---x-|-x---x-x---x---x-| 
A|-5---5-5---5---5-|-5---5-5---5---5-|-5---5-5---5---5-|-5---5-5---5---3-| 
E|-----------------|-----------------|-----------------|-----------------| 

Guitar 2 
e|-----------------|-----------------|-----------------|-----------------| 
B|-----------------|-----------------|-----------------|-----------------| 
G|-----------------|-----------------|-----------------|-----------------| 
D|-7-7-7-7-7-7-7-7-|-7-7-7-7-7-7-7-7-|-5-5-5-5-5-5-5-5-|-5-5-5-5-5-5-5-5-| 
A|-7-7-7-7-7-7-7-7-|-7-7-7-7-7-7-7-7-|-5-5-5-5-5-5-5-5-|-5-5-5-5-5-5-5-5-| 
E|-5-5-5-5-5-5-5-5-|-5-5-5-5-5-5-5-5-|-3-3-3-3-3-3-3-3-|-3-3-3-3-3-3-3-3-| 

e|-----------------|-----------------|-----------------|-----------------| 
B|-----------------|-----------------|-----------------|-----------------| 
G|-----------------|-----------------|-5-5-5-5-5-5-5-5-|-5-5-5-5-5-5-5-5-| 
D|-3-3-3-3-3-3-3-3-|-3-3-3-3-3-3-3-3-|-5-5-5-5-5-5-5-5-|-5-5-5-5-5-5-5-5-| 
A|-3-3-3-3-3-3-3-3-|-3-3-3-3-3-3-3-3-|-3-3-3-3-3-3-3-3-|-3-3-3-3-3-3-3-3-| 
E|-1-1-1-1-1-1-1-1-|-1-1-1-1-1-1-1-1-|-----------------|-----------------| (x2) 

e|-----------------|-----------------| 
B|-----------------|-----------------| 
G|-----------------|-----------------| 
D|-3-3-3-3-3-3-3-3-|-3-3-3-3-3-3-3-3-| 
A|-3-3-3-3-3-3-3-3-|-3-3-3-3-3-3-3-3-| 
E|-1-1-1-1-1-1-1-1-|-1-1-1-1-1-1-1-1-| 

e|-----------------|-----------------|-----------------|-----------------| 
B|-----------------|-----------------|-----------------|-----------------| 
G|-----------------|-----------------|-----------------|-----------------| 
D|-5-5-5-5-5-5-5-5-|-5-5-5-5-5-5-5-5-|-5-5-5-5-5-5-5-5-|-5-5-5-5-5-5-5-5-| 
A|-5-5-5-5-5-5-5-5-|-5-5-5-5-5-5-5-5-|-5-5-5-5-5-5-5-5-|-5-5-5-5-5-5-5-5-| 
E|-3-3-3-3-3-3-3-3-|-3-3-3-3-3-3-3-3-|-3-3-3-3-3-3-3-3-|-3-3-3-3-3-3-3-3-| 

Chorus 2 

Guitar 1 
e|-----------------|--------------------|-----------------|-------------------| 
B|-----------------|--------------------|-----------------|-------------------| 
G|-9-9-9-9-9-9-9-9-|-9-9-9-9-9-12-12-12-|-9-9-9-9-9-9-9-9-|-9-9-9-9-9-9-12-12-| 
D|-x-x-x-x-x-x-x-x-|-x-x-x-x-x-x--x--x--|-x-x-x-x-x-x-x-x-|-x-x-x-x-x-x-x--x--| 
A|-7-7-7-7-7-7-7-7-|-7-7-7-7-7-10-10-10-|-7-7-7-7-7-7-7-7-|-7-7-7-7-7-7-10-10-| 
E|-----------------|--------------------|-----------------|-------------------| 

e|-------------------------|-------------------------|-----------------|-----------------| 
B|-------------------------|-------------------------|-----------------|-----------------| 
G|-14-14-14-14-14-14-14-14-|-14-14-14-14-14-14-12-12-|-5-5-5-5-5-5-5-7-|-9-9-9-9-9-9-7-7-| 
D|-x--x--x--x--x--x--x--x--|-x--x--x--x--x--x--x--x--|-x-x-x-x-x-x-x-x-|-x-x-x-x-x-x-x-x-| 
A|-12-12-12-12-12-12-12-12-|-12-12-12-12-12-12-10-10-|-3-3-3-3-3-3-3-5-|-7-7-7-7-7-7-5-5-| 
E|-------------------------|-------------------------|-----------------|-----------------| (All x2) 

Guitar 2 
e|-----------------|-----------------|-----------------|-----------------| 
B|-----------------|-----------------|-----------------|-----------------| 
G|-5-5-5-5-5-5-5-5-|-5-5-5-5-5-5-5-5-|-5-5-5-5-5-5-5-5-|-5-5-5-5-5-5-5-5-| 
D|-5-5-5-5-5-5-5-5-|-5-5-5-5-5-5-5-5-|-5-5-5-5-5-5-5-5-|-5-5-5-5-5-5-5-5-| 
A|-3-3-3-3-3-3-3-3-|-3-3-3-3-3-3-3-3-|-3-3-3-3-3-3-3-3-|-3-3-3-3-3-3-3-3-| 
E|-----------------|-----------------|-----------------|-----------------| 

e|-----------------|-----------------|-----------------|-----------------| 
B|-----------------|-----------------|-----------------|-----------------| 
G|-----------------|-----------------|-----------------|-----------------| 
D|-7-7-7-7-7-7-7-7-|-7-7-7-7-7-7-7-7-|-3-3-3-3-3-3-3-3-|-3-3-3-3-3-3-3-3-| 
A|-7-7-7-7-7-7-7-7-|-7-7-7-7-7-7-7-7-|-3-3-3-3-3-3-3-3-|-3-3-3-3-3-3-3-3-| 
E|-5-5-5-5-5-5-5-5-|-5-5-5-5-5-5-5-5-|-1-1-1-1-1-1-1-1-|-1-1-1-1-1-1-1-1-| (All x2) 

Bridge 1 

e|-----------------|-----------------|-----------------|-----------------| 
B|-----------------|-----------------|-----------------|-----------------| 
G|-7-7-7-x-x-x-x-x-|-7-7-7-x-x-x-x-x-|-----------------|-----------------| 
D|-7-7-7-x-x-x-x-x-|-7-7-7-x-x-x-x-x-|-5-5-5-5-5-5-5-5-|-5-5-5-5-3-3-3-3-| 
A|-5-5-5-x-x-x-x-x-|-5-5-5-x-x-x-x-x-|-5-5-5-5-5-5-5-5-|-5-5-5-5-3-3-3-3-| 
E|-----------------|-----------------|-3-3-3-3-3-3-3-3-|-3-3-3-3-1-1-1-1-| (x2) 

e|-----------------|-----------------|-----------------|-----------------| 
B|-----------------|-----------------|-----------------|-----------------| 
G|-7-7-7-7-7-7-7-7-|-7-7-7-7-7-7-7-7-|-----------------|-----------------| 
D|-7-7-7-7-7-7-7-7-|-7-7-7-7-7-7-7-7-|-5-5-5-5-5-5-5-5-|-5-5-5-5-5-5-5-5-| 
A|-5-5-5-5-5-5-5-5-|-5-5-5-5-5-5-5-5-|-5-5-5-5-5-5-5-5-|-5-5-5-5-5-5-5-5-| 
E|-----------------|-----------------|-3-3-3-3-3-3-3-3-|-3-3-3-3-3-3-3-3-| 

e|-----------------|-----------------|-----------------|-----------------| 
B|-----------------|-----------------|-----------------|-----------------| 
G|-5-5-5-5-5-5-5-5-|-4-4-4-4-4-4-4-4-|-----------------|-----------------| 
D|-5-5-5-5-5-5-5-5-|-4-4-4-4-4-4-4-4-|-7-7-7-7-7-7-7-7-|-5-5-5-5-5-5-5-5-| 
A|-3-3-3-3-3-3-3-3-|-2-2-2-2-2-2-2-2-|-7-7-7-7-7-7-7-7-|-5-5-5-5-5-5-5-5-| 
E|-----------------|-----------------|-5-5-5-5-5-5-5-5-|-3-3-3-3-3-3-3-3-| 

e|-----------------|-----------------|-----------------|-----------------| 
B|-----------------|-----------------|-----------------|-----------------| 
G|-----------------|-----------------|-----------------|-----------------| 
D|-3-3-3-3-3-3-3-3-|-3-3-3-3-3-3-3-3-|-3-3-3-x-x-x-x-x-|-3-3-3-x-x-x-x-x-| 
A|-3-3-3-3-3-3-3-3-|-3-3-3-3-3-3-3-3-|-3-3-3-x-x-x-x-x-|-3-3-3-x-x-x-x-x-| 
E|-1-1-1-1-1-1-1-1-|-1-1-1-1-1-1-1-1-|-1-1-1-x-x-x-x-x-|-1-1-1-x-x-x-x-x-| 

Bridge 2 

e|-----------------|-----------------|-----------------|-----------------| 
B|-----------------|-----------------|-----------------|-----------------| 
G|-5---------------|-----------------|-----------------|-----------------| 
D|-5---------------|-----------------|-----------------|-------------5---| 
A|-3---------------|-----------------|-----------------|-------------5---| 
E|-----------------|-----------------|-----------------|-------------3---| 

e|-----------------|-----------------|-----------------|-----------------| 
B|-----------------|-----------------|-----------------|-----------------| 
G|-----------------|-----------------|-10--------------|-----------------| 
D|-7---------------|-----------------|-10--------------|-----------------| 
A|-7---------------|-----------------|-8---------------|-----------------| 
E|-5---------------|-----------------|-----------------|-----------------| 

e|-----------------|-----------------|-----------------|-----------------| 
B|-----------------|-----------------|-----------------|-----------------| 
G|-5-5-5-5-5-5-5-5-|-5-5-5-5-5-5-5-5-|-5-5-5-5-5-5-5-5-|-5-5-5-5-5-5-----| 
D|-5-5-5-5-5-5-5-5-|-5-5-5-5-5-5-5-5-|-5-5-5-5-5-5-5-5-|-5-5-5-5-5-5-5-5-| 
A|-3-3-3-3-3-3-3-3-|-3-3-3-3-3-3-3-3-|-3-3-3-3-3-3-3-3-|-3-3-3-3-3-3-5-5-| 
E|-----------------|-----------------|-----------------|-------------3-3-| 

e|-----------------|-----------------|-------------------------|-------------------------| 
B|-----------------|-----------------|-------------------------|-------------------------| 
G|-----------------|-----------------|-10-10-10-10-10-10-10-10-|-10-10-10-10-10-10-10-10-| 
D|-7-7-7-7-7-7-7-7-|-7-7-7-7-7-7-7-7-|-10-10-10-10-10-10-10-10-|-10-10-10-10-10-10-10-10-| 
A|-7-7-7-7-7-7-7-7-|-7-7-7-7-7-7-7-7-|-8--8--8--8--8--8--8--8--|-8--8--8--8--8--8--8--8--| 
E|-5-5-5-5-5-5-5-5-|-5-5-5-5-5-5-5-5-|-------------------------|-------------------------| 

e|-----------------|-----------------|-----------------|-----------------| 
B|-----------------|-----------------|-----------------|-----------------| 
G|-----------------|-----------------|-----------------|-----------------| 
D|-5-5-5-5-5-5-5-5-|-5-5-5-5-5-5-5-5-|-5-5-5-5-5-5-5-5-|-3-3---3-3-------| 
A|-5-5-5-5-5-5-5-5-|-5-5-5-5-5-5-5-5-|-5-5-5-5-5-5-5-5-|-3-3---3-3-------| 
E|-3-3-3-3-3-3-3-3-|-3-3-3-3-3-3-3-3-|-3-3-3-3-3-3-3-3-|-1-1---1-1-------| 
   . . . . . . . .   . . . . . . . .   . . . . 

Chorus 3 

Guitar 1 
e|-----------------|--------------------|-----------------|-------------------| 
B|-----------------|--------------------|-----------------|-------------------| 
G|-9-9-9-9-9-9-9-9-|-9-9-9-9-9-12-12-12-|-9-9-9-9-9-9-9-9-|-9-9-9-9-9-9-12-12-| 
D|-x-x-x-x-x-x-x-x-|-x-x-x-x-x-x--x--x--|-x-x-x-x-x-x-x-x-|-x-x-x-x-x-x-x--x--| 
A|-7-7-7-7-7-7-7-7-|-7-7-7-7-7-10-10-10-|-7-7-7-7-7-7-7-7-|-7-7-7-7-7-7-10-10-| 
E|-----------------|--------------------|-----------------|-------------------| 

e|-------------------------|-------------------------|-----------------|-----------------| 
B|-------------------------|-------------------------|-----------------|-----------------| 
G|-14-14-14-14-14-14-14-14-|-14-14-14-14-14-14-12-12-|-5-5-5-5-5-5-5-7-|-9-9-9-9-9-9-7-7-| 
D|-x--x--x--x--x--x--x--x--|-x--x--x--x--x--x--x--x--|-x-x-x-x-x-x-x-x-|-x-x-x-x-x-x-x-x-| 
A|-12-12-12-12-12-12-12-12-|-12-12-12-12-12-12-10-10-|-3-3-3-3-3-3-3-5-|-7-7-7-7-7-7-5-5-| 
E|-------------------------|-------------------------|-----------------|-----------------| (All x2) 

Guitar 2 
e|-----------------|-----------------|-----------------|-----------------| 
B|-----------------|-----------------|-----------------|-----------------| 
G|-5-5-5-5-5-5-5-5-|-5-5-5-5-5-5-5-5-|-5-5-5-5-5-5-5-5-|-5-5-5-5-5-5-5-5-| 
D|-5-5-5-5-5-5-5-5-|-5-5-5-5-5-5-5-5-|-5-5-5-5-5-5-5-5-|-5-5-5-5-5-5-5-5-| 
A|-3-3-3-3-3-3-3-3-|-3-3-3-3-3-3-3-3-|-3-3-3-3-3-3-3-3-|-3-3-3-3-3-3-3-3-| 
E|-----------------|-----------------|-----------------|-----------------| 

e|-----------------|-----------------|-----------------|-----------------| 
B|-----------------|-----------------|-----------------|-----------------| 
G|-----------------|-----------------|-----------------|-----------------| 
D|-7-7-7-7-7-7-7-7-|-7-7-7-7-7-7-7-7-|-3-3-3-3-3-3-3-3-|-3-3-3-3-3-3-3-3-| 
A|-7-7-7-7-7-7-7-7-|-7-7-7-7-7-7-7-7-|-3-3-3-3-3-3-3-3-|-3-3-3-3-3-3-3-3-| 
E|-5-5-5-5-5-5-5-5-|-5-5-5-5-5-5-5-5-|-1-1-1-1-1-1-1-1-|-1-1-1-1-1-1-1-1-| (All x2) 

Outro 

Guitar 1 
e|-----------------|--------------------|-----------------|-------------------| 
B|-----------------|--------------------|-----------------|-------------------| 
G|-9-9-9-9-9-9-9-9-|-9-9-9-9-9-12-12-12-|-9-9-9-9-9-9-9-9-|-9-9-9-9-9-9-12-12-| 
D|-x-x-x-x-x-x-x-x-|-x-x-x-x-x-x--x--x--|-x-x-x-x-x-x-x-x-|-x-x-x-x-x-x-x--x--| 
A|-7-7-7-7-7-7-7-7-|-7-7-7-7-7-10-10-10-|-7-7-7-7-7-7-7-7-|-7-7-7-7-7-7-10-10-| 
E|-----------------|--------------------|-----------------|-------------------| 

e|-------------------------|-------------------------|-----------------|-----------------| 
B|-------------------------|-------------------------|-----------------|-----------------| 
G|-14-14-14-14-14-14-14-14-|-14-14-14-14-14-14-12-12-|-5-5-5-5-5-5-5-7-|-9-9-9-9-9-9-7-7-| 
D|-x--x--x--x--x--x--x--x--|-x--x--x--x--x--x--x--x--|-x-x-x-x-x-x-x-x-|-x-x-x-x-x-x-x-x-| 
A|-12-12-12-12-12-12-12-12-|-12-12-12-12-12-12-10-10-|-3-3-3-3-3-3-3-5-|-7-7-7-7-7-7-5-5-| 
E|-------------------------|-------------------------|-----------------|-----------------| 

e|-----------------|--------------------|-----------------|-------------------| 
B|-----------------|--------------------|-----------------|-------------------| 
G|-9-9-9-9-9-9-9-9-|-9-9-9-9-9-12-12-12-|-9-9-9-9-9-9-9-9-|-9-9-9-9-9-9-12-12-| 
D|-x-x-x-x-x-x-x-x-|-x-x-x-x-x-x--x--x--|-x-x-x-x-x-x-x-x-|-x-x-x-x-x-x-x--x--| 
A|-7-7-7-7-7-7-7-7-|-7-7-7-7-7-10-10-10-|-7-7-7-7-7-7-7-7-|-7-7-7-7-7-7-10-10-| 
E|-----------------|--------------------|-----------------|-------------------| 

e|-------------------------|-------------------------|--------------------|----------------------| 
B|-------------------------|-------------------------|--------------------|----------------------| 
G|-14-14-14-14-14-14-14-14-|-14-14-14-14-14-14-14-14-|-10-10-10-x-x-x-x-x-|-10-10-10-x-x-x-12-12-| 
D|-x--x--x--x--x--x--x--x--|-x--x--x--x--x--x--x--x--|-x--x--x--x-x-x-x-x-|-x--x--x--x-x-x-x--x--| 
A|-12-12-12-12-12-12-12-12-|-12-12-12-12-12-12-12-12-|-8--8--8--x-x-x-x-x-|-8--8--8--x-x-x-10-10-| 
E|-------------------------|-------------------------|--------------------|----------------------| 
Guitar 2 
e|-----------------|-----------------|-----------------|-----------------| 
B|-----------------|-----------------|-----------------|-----------------| 
G|-5-5-5-5-5-5-5-5-|-5-5-5-5-5-5-5-5-|-5-5-5-5-5-5-5-5-|-5-5-5-5-5-5-5-5-| 
D|-5-5-5-5-5-5-5-5-|-5-5-5-5-5-5-5-5-|-5-5-5-5-5-5-5-5-|-5-5-5-5-5-5-5-5-| 
A|-3-3-3-3-3-3-3-3-|-3-3-3-3-3-3-3-3-|-3-3-3-3-3-3-3-3-|-3-3-3-3-3-3-3-3-| 
E|-----------------|-----------------|-----------------|-----------------| 

e|-----------------|-----------------|-----------------|-----------------| 
B|-----------------|-----------------|-----------------|-----------------| 
G|-----------------|-----------------|-----------------|-----------------| 
D|-7-7-7-7-7-7-7-7-|-7-7-7-7-7-7-7-7-|-3-3-3-3-3-3-3-3-|-3-3-3-3-3-3-3-3-| 
A|-7-7-7-7-7-7-7-7-|-7-7-7-7-7-7-7-7-|-3-3-3-3-3-3-3-3-|-3-3-3-3-3-3-3-3-| 
E|-5-5-5-5-5-5-5-5-|-5-5-5-5-5-5-5-5-|-1-1-1-1-1-1-1-1-|-1-1-1-1-1-1-1-1-| 

e|-----------------|-----------------|-----------------|-----------------| 
B|-----------------|-----------------|-----------------|-----------------| 
G|-5-5-5-5-5-5-5-5-|-5-5-5-5-5-5-5-5-|-5-5-5-5-5-5-5-5-|-5-5-5-5-5-5-5-5-| 
D|-5-5-5-5-5-5-5-5-|-5-5-5-5-5-5-5-5-|-5-5-5-5-5-5-5-5-|-5-5-5-5-5-5-5-5-| 
A|-3-3-3-3-3-3-3-3-|-3-3-3-3-3-3-3-3-|-3-3-3-3-3-3-3-3-|-3-3-3-3-3-3-3-3-| 
E|-----------------|-----------------|-----------------|-----------------| 

e|-----------------|-----------------|-----------------|-----------------| 
B|-----------------|-----------------|-----------------|-----------------| 
G|-----------------|-----------------|-----------------|-----------------| 
D|-7-7-7-7-7-7-7-7-|-7-7-7-7-7-7-7-7-|-3-3-3-x-x-x-x-x-|-3-3-3-x-x-x-5-5-| 
A|-7-7-7-7-7-7-7-7-|-7-7-7-7-7-7-7-7-|-3-3-3-x-x-x-x-x-|-3-3-3-x-x-x-5-5-| 
E|-5-5-5-5-5-5-5-5-|-5-5-5-5-5-5-5-5-|-1-1-1-x-x-x-x-x-|-1-1-1-x-x-x-3-3-| 

Ending 

Guitar 1 
e|---| 
B|---| 
G|-9-| 
D|-x-| 
A|-7-| 
E|---| 

Guitar 2 
e|---| 
B|---| 
G|-5-| 
D|-5-| 
A|-3-| 
E|---| 

*********************************** 
| x   Deadnote 
*********************************** 
  

top 5 | millencolin
top rock'n roll
Outras músicas do artista letras do(a) Millencolin
Top cifras »Top artistas »
Petaxxon Comunicação Online
Cifras.com.br - Melhor e mais completo site de cifras e tablaturas do Brasil
Mais de 1 milhão de acordes de músicas cadastradas desde 2003
As informações contidas no nosso site são colaborações de seus usuários e podem conter erros, sendo assim, não nos responsabilizamos sobre nenhuma destas.
close
menos
mais
close
Cor dos acordes:

Cor da letra:

 

save
close
close
 
redimensionar