Cifras e Tablaturas
Mindflow

Mindflow

Break Me Out

Cifras Cancelar Versão de Impressão
cifras

Mindflow - Break Me Out

fixar na tela  
Exibindo: vídeo-aula ver clipes redimensionar
  
E|------------------------------------------------------------------ 
B|------------------------------------------------------------------ 
G|---------------------------0-----0-2-----2-----(2)-----(2)-------- 
D|------------------0---0--0---(0)-----(0)---(0)-----(0)-----(0)-0-- 
A|------------------------------------------------------------------ 
E|------------------------------------------------------------------ 
B|------------------------------------------------------------------ 
--------------------------| 
--------------------------| 
--3-----3-(2)-3-(2)-0-----| 
----(0)---------------(0)-| 
--------------------------| 
--------------------------| 
 

Guitarra 2: 

 
E|----------------------|------------------------| 
B|----------------------|------------------------| 
G|-7------------8\--5---|------------------------| 
D|----------------------|-------------5--5/8--5--| 
A|----------------------|------------------------| 
E|----------------------|------------------------| 
B|----------------------|------------------------| 
 
 
-------------------------|---------------------------| 
-------------------------|---------------------------| 
-------------------------|---------------------------| 
--5-----------5--5/8--5--|--5/8-----------5--5/8--5--| 
-------------------------|---------------------------| 
-------------------------|---------------------------| 
-------------------------|---------------------------| 
 
 
----------------------------|-----------------------------------| 
----------------------------|-----8/10-10-10--------------------| 
--3/5------5/7------7/8--7--|-----------------------------------| 
----------------------------|-----------------------------------| 
----------------------------|-----------------------------------| 
----------------------------|-----------------------------------| 
----------------------------|-----------------------------------| 
 

Riff 

 
E|----------------------- 
B|----------------------- 
G|----------------------- 
D|----------------------- 
A|----------------------- 
E|--------------3--6--3-- 
B|----------------------- 
 
 
----------------------------------|----------------------------------| 
----------------------------------|----------------------------------| 
----------------------------------|----------------------------------| 
----------------------------------|----------------------------------| 
----5-3---6---------3-5-0-5-3-----|----5-3---6---------3-5-0-5-3-----| 
--3-----6---3-3-6-3-----------5-6-|--3-----6---3-3-6-3-----------5-6-| 
----------------------------------|----------------------------------| 
 
 
----------------------------------|---------------------------------- 
----------------------------------|---------------------------------- 
----------------------------------|---------------------------------- 
----------------------------------|---------------------------------- 
----5-3---6---------3-5-0-5-3-----|----5-3---6----------5/8--5------- 
--3-----6---3-3-6-3-----------5-6-|--3-----6---3-3-6-3--3/6--3------- 
----------------------------------|---------------------------------- 
 

Verso: 

 
E|--------------------------- 
B|--------------------------- 
G|--------------------------- 
D|--------------------------- 
A|----------ou-5-----3------- 
E|-10----8-----3-----1------- 
B|-8-----6------------------- 
 

PM. . . . . . . . . . . . . . . . . . . . . . . . . . . . . . . . . .  
 
E|-------------------------------------------------------------------| 
B|-------------------------------------------------------------------| 
G|-------------------------------------------------------------------| 
D|-------------------------------------------------------------------| 
A|-------------------------------------------------------------------| 
E|-------------------------------------------------------------------| 
B|8-8-8-8-8-8-8-8-8-8-8-8-8-8-8-8-8-6-6-6-6-6-6-6-6-6-6-6-6-6-6-6-6-6| ou 3\1 em E no lugar de 8 e 6 
 
 
E|----------------------------------------------------------------| 
B|----------------------------------------------------------------| 
G|----------------------------------------------------------------| 
D|-8-8-8-8---10-10-10-10------8-8-8-8---10-10-10------------------|             5   3                10  8 
A|-6-6-6-6---8--8--8--8-------6-6-6-6---8-8-8-8-------------------|(Pode ser E| 3 e 1 no lugar de B| 8 e 6) 
E|-----------------------10----------------------8-----6-6-6-6-5-3| 
B|-----------------------8-----------------------6----------------| 
 

Refrão: 

 
E|------------------------------------------------------------------------ 
B|------------------------------------------------------------------------ 
G|---------------------------------------------------8-8-X-X-8-8-X-X-8-X-X    D|5\3             10   8 
D|---------------------------------------------------8-8-X-X-8-8-X-X-8-X-X ou A|5\3             10 e 8 
A|-10-10-X-X-10-10--X-X-10-X-X-8-8-X-X-8-8-X-X-8-X-X-6-6-X-X-6-6-X-X-6-X-X    E|3\1 no lugar de 8    6 
E|-10-10-X-X-10-10--X-X-10-X-X-8-8-X-X-8-8-X-X-8-X-X---------------------- 
B|-8--8--X-X-8--8---X-X-8--X-X-6-6-X-X-6-6-X-X-6-X-X---------------------- 
 
 
-----------------------------------| 
-----------------------------------| 
-10-10-X-X-10----------------------| 
-10-10-X-X-10----------------------| 
-8--8--X-X-8----13-13-13-13-12-10--|(2x) 
-----------------------------------| 
-----------------------------------| 
 

Riff: 

 
E|--------------------------------------------------------------------| 
B|--------------------------------------------------------------------| 
G|--------------------------------------------------------------------| 
D|--------------------------------------------------------------------| 
A|----5-3---6---------3-5-0-5-3---------5-3---6---------3-5-0-5-3-----| 
E|--3-----6---3-3-6-3-----------5-6---3-----6---3-3-6-3-----------5-6-| 
B|--------------------------------------------------------------------| 
 

Verso: 

 
E|---------------------------- 
B|---------------------------- 
G|---------------------------- 
D|---------------------------- 
A|---------------------------- 
E|-10----6---6---6--8--------- 
B|-8-----4---4---4--6--------- 
 

PM. . . . . . . . . . . . . . . . . . . . . . . . . . . . . . . . . .  
 
E|-------------------------------------------------------------------| 
B|-------------------------------------------------------------------| 
G|-------------------------------------------------------------------| 
D|-------------------------------------------------------------------| 
A|-------------------------------------------------------------------| 
E|-------------------------------------------------------------------| 
B|8-8-8-8-8-8-8-8-8-8-8-8-8-8-8-8-8-6-6-6-6-6-6-6-6-6-6-6-6-6-6-6-6-6| ou 3 e 1 em E no lugar de 8 e 6 
 
 
E|----------------------------------------------------------------| 
B|----------------------------------------------------------------| 
G|----------------------------------------------------------------| 
D|-8-8-8-8---10-10-10-10------8-8-8-8---10-10-10------------------|             5   3                10  8 
A|-6-6-6-6---8--8--8--8-------6-6-6-6---8-8-8-8-------------------|(Pode ser E| 3 e 1 no lugar de B| 8 e 6) 
E|-----------------------10----------------------8-----6-6-6-6-5-3| 
B|-----------------------8-----------------------6----------------| 
 

Refrão: 

 
E|------------------------------------------------------------------------ 
B|------------------------------------------------------------------------ 
G|---------------------------------------------------8-8-X-X-8-8-X-X-8-X-X       5   3             10  8 
D|---------------------------------------------------8-8-X-X-8-8-X-X-8-X-X ou    5   3             10  8 
A|-10-10-X-X-10-10--X-X-10-X-X-8-8-X-X-8-8-X-X-8-X-X-6-6-X-X-6-6-X-X-6-X-X    E| 3 e 1 no lugar de 8 e 6 
E|-10-10-X-X-10-10--X-X-10-X-X-8-8-X-X-8-8-X-X-8-X-X---------------------- 
B|-8--8--X-X-8--8---X-X-8--X-X-6-6-X-X-6-6-X-X-6-X-X---------------------- 
 
 
-----------------------------------| 
-----------------------------------| 
-10-10-X-X-10----------------------| 
-10-10-X-X-10----------------------| 
-8--8--X-X-8----13-13-13-13-12-10--|(2x) 
-----------------------------------| 
-----------------------------------| 
 

Riff (Sem distorção): 

  Gm   F   Dm  F 


 
E|-3---1---3---5---------------| 
B|-3---1---4---6---------------| 
G|-3---2---3---5---------------| 
D|-5---3---1---3---------------| 
A|-5---3-----------------------| 
E|-3---1-----------------------| 
B|-----------------------------| 
 

Pré-Solo: 
(Pode-se usar slider aqui) 

 
E|--------------------------------------------------------------------- 
B|--------------------------------------------------------------------- 
G|----------------------------------------------------------14-14-14-14 
D|-5-5/7-5-5/8---5-5/7-5-5/7---5-5/7--5-5/8--8/10--8/13-12------------- 
A|--------------------------------------------------------------------- 
E|--------------------------------------------------------------------- 
B|--------------------------------------------------------------------- 
 
 
-----------------------------------------------| 
-----------------------------------------------| 
------------------7-7-7-5-5-5-3-3-3-2--0-0/1-0-| 
--5-5/7-5-(2x)---------------------------------| 
-----------------------------------------------| 
-----------------------------------------------| 
-----------------------------------------------| 
 

Solo: 

T            .           .           .           .           .           . 
 
E|----------------------------------------------------------------------------------- 
B|--10h13p10-13p10h13p10-13-10h13p10-13-10h13p10-13-10h13p10-13-10h13p10-13...------- 
G|----------------------------------------------------------------------------------- 
D|----------------------------------------------------------------------------------- 
A|----------------------------------------------------------------------------------- 
E|----------------------------------------------------------------------------------- 
B|----------------------------------------------------------------------------------- 
 
 
--13b15------13b15------13b15r13---------------------| 
-----------------------------------15----------------| 
-----------------------------------------------------| 
-----------------------------------------------------| 
-----------------------------------------------------| 
-----------------------------------------------------| 
 

           H.A.                       H.A   
 
---------------------------------------------| 
---------------------------------------------| 
--5b7------b7---b7r5----3--------------------| 
-------------------------------5-3-5---5---5-| 
---------------------------------------------| 
---------------------------------------------| 
 
 
E|------------------------------------------------------------------ 
B|---------------------------------------------------3h4h6--6---6--- 
G|----------------------------2h3h5p3p2h3h5p3p2h3h5----------------- 
D|---------------2h3h5p3p2h3h5-------------------------------------- 
A|--2h3h5p3p2h3h5--------------------------------------------------- 
E|------------------------------------------------------------------ 
B|------------------------------------------------------------------ 
 
 
-6--6p5--5---------6-6p5---5----------| 
-------8---8-6-8---------8---8-6-6----| 
--------------------------------------| 
--------------------------------------| 
--------------------------------------| 
--------------------------------------| 
--------------------------------------| 
 
 
---------------------------------------------------------------------| 
--6\4-4-4-4\3-3-3-3~---------6\4-4-4-4\3-3-3-------------------------| 
----------------------------------------------------3-3-2-3---0-0----| 
---------------------------------------------------------------------| 
---------------------------------------------------------------------| 
---------------------------------------------------------------------| 
---------------------------------------------------------------------| 
 

          H.A                               
 
----------------------------------------------------| 
----------------------------------------------------| 
--3-5-5b7-b7--b7r5--3--0-0---3-5-5b7-b7-b7r5-3------| 
----------------------------------------------------| 
----------------------------------------------------| 
----------------------------------------------------| 
----------------------------------------------------| 
 
 
------------------8-----------------| 
----8---8-10/11-----11-10\8-8b10----| 
-/7---7-----------------------------| 
------------------------------------| 
------------------------------------| 
------------------------------------| 
 

Refrão Final: 

 
E|---------------------------------------------------------- 
B|---------------------------------------------------------- 
G|-8-8-X-X-8-8-X-X-8-X-X-10-10-X-X-10----------------------- 
D|-8-8-X-X-8-8-X-X-8-X-X-10-10-X-X-10----------------------- 
A|-6-6-X-X-6-6-X-X-6-X-X-8--8--X-X-8----13-13-13-13-12-10--- 
E|---------------------------------------------------------- 
B|---------------------------------------------------------- 
 
 
E|--------------------------------------------------------------------------------------------- 
B|--------------------------------------------------------------------------------------------- 
G|--------------------------------------------------------------------------------------------- 
D|--------------------------------------------------------------------------------------------- 
A|-10-10-X-X-10--13-13-13-13-12-10-8-8-X-X-8--13-13-13-13-12-10--6-6-X-X-6-6-X-X-6-X-X-8-8-X-X- 
E|-10-10-X-X-10--------------------8-8-X-X-8---------------------6-6-X-X-6-6-X-X-6-X-X-8-8-X-X- 
B|-8--8--X-X-8---------------------6-6-X-X-6---------------------4-4-X-X-4-4-X-X-4-X-X-6-6-X-X- 
 
 
E|--------------| 
B|--------------| 
G|--------------| 
D|-5-5/8-5-5~~--| 
A|-5-5/8-5-5~~--| 
E|-3-3/6-3-3~~--| 
B|--------------| 
  

cifra enviadasem correções
enviado porenviada por:gustsilva
top 5 | mindflow
top heavy metal
Outras músicas do artista letras do(a) Mindflow
Top cifras »Top artistas »
Petaxxon Comunicação Online
Cifras.com.br - Melhor e mais completo site de cifras e tablaturas do Brasil
Mais de 1 milhão de acordes de músicas cadastradas desde 2003
As informações contidas no nosso site são colaborações de seus usuários e podem conter erros, sendo assim, não nos responsabilizamos sobre nenhuma destas.
close
menos
mais
close
Cor dos acordes:

Cor da letra:

 

save
close
close
 
redimensionar