Cifras e Tablaturas
Misc Cartoons

Misc Cartoons

Aladdin - Prince Ali

Cifras Cancelar Versão de Impressão
cifras

Misc Cartoons - Aladdin - Prince Ali

fixar na tela  
Exibindo: vídeo-aula ver clipes redimensionar

Tom:

  
Intro 
e|-----7-8-10-11-10-8-7----|-----------------------------------------------------------------------------| 
B|-------------------------|-7-8-10-11-10-8-7------------------------------------------------------------| 
G|-------------------------|------------------9-8-9-11-9----8--------------------------------------------| 
D|-------------------------|----------------------------------10-9-10-13-12-10----9----------------------| 
A|-------------------------|-----------------------------------------------------------------------------| 
E|-----------------------0-|-----------------------------------------------------------------------------| 

Verse 
e|------------------------------|    |---7-7---7-7---7-8-7-|----2-2---2-2---2-3-2------------------------| 
B|------------------------------|    |---------------------|-0-----0-----0-------------------------------| 
G|------------------------------| x4 |-9-----9-----9-------|---------------------------------------------| 
D|--2------2------2-------------|    |---------------------|---------------------------------------------| 
A|-----2-2----2-2----2--3--2----|    |---------------------|---------------------------------------------| 
E|------------------------------|    |---------------------|---------------------------------------------| 

e|----7-7---7-7---7-8-7-|-5------------------------------------------------------------------------------| 
B|----------------------|-------5---------------|--2-2---2-2---2------0-0-0-2-3-4------------------------| 
G|--9-----9-----9-------|-----------------------|--------------------------------------------------------| 
D|----------------------|---7-7---7-7---7-7---5-|-4-----4-----4---4--------------------------------------| 
A|----------------------|-----------------------|--------------------------------------------------------| 
E|----------------------|-------------5-----5---|--------------------------------------------------------| 

Chorus 
e|-----|-7-5-7-5-3-2---3-2-|-0-----0---0------|-0-----0--------------------------------------------------| 
B|-0-0-|-------------------|----0-----------0-|----3-----3-1-0---1-0---------------1-1-0-----------------| 
G|-----|-------------------|-------------3----|---------------------2-1---2---2--------------------------| 
D|-----|-------------------|------------------|----------------------------------------------------------| 
A|-----|-------------2-----|-----2------------|-----------------------------0---0------------------------| 
E|-----|-------------------|---------0--------|-----0---------0---------0---------------2----------------| 

e|---------0---------------3-3-2-3-2-3-2-2---2-7----------- |--------------------------------------------| 
B|-1-0-------5-3---5-3-1-------------------6----------------|--------------------------------------------| 
G|-----0----------------------------------------------------|--------------------------------------------| 
D|----------------------------------------------------------|--------------------------------------------| 
A|-----------------------3----------------------------------|--------------------------------------------| 
E|-------0-------3-------------------------------7-9-10-11--|--------------------------------------------| 

e|-----7-5-7-5-3-2---3-2-0-----0---0-------0-----0-----------------------------------|-------------------| 
B|-0-0---------------------0-----------0-----3-----3-1-0---1-0---------------1-1-0---|-------------------| 
G|-----------------------------------3-------------------------2-1---2---2-----------|-------------------| 
D|-----------------------------------------------------------------------------------|-------------------| 
A|-----------------2---------2-----------------------------------------0---0---------|-------------------| 
E|-------------------------------0-------------0---------0---------0---------------2-|-------------------| 

e|---------0---------------3-3-2-3-2-3-2-2---2-7---3---|-------------------------------------------------| 
B|-1-0-------5-3---5-3-1-------------------6-----0---4-|-------------------------------------------------| 
G|-----0-----------------------------------------------|-------------------------------------------------| 
D|-----------------------------------------------------|-------------------------------------------------| 
A|-----------------------3-----------------------------|-------------------------------------------------| 
E|-------0-------3-------------------------------------|-------------------------------------------------| 

Verse 
e|-0-------------0-2-0-----0-2---3-0-------------0-2-0-----0-2---0-3-------------0--|--------------------| 
B|---0---0-0-0-4---------4-----------0---0-0-0-4---------4-----------0---0-0-0-4----|--------------------| 
G|----------------------------------------------------------------------------------|--------------------| 
D|----------------------------------------------------------------------------------|--------------------| 
A|---------------------0-------0-----------------------0-------0--------------------|--------------------| 
E|-----0-------------------------------0-------------------------------0------------|--------------------| 

e|-2-0-----0-2---3-0------------0-0-------0-------0-0-2-2-2---2-7-|--------------------------------------| 
B|-------4-----------0----0-0-------1-1-1---1-1-1-----------6-----|--------------------------------------| 
G|----------------------------------------------------------------|--------------------------------------| 
D|----------------------------------------------------------------|--------------------------------------| 
A|-----0-------0--------------------------------------------------|--------------------------------------| 
E|---------------------0------0-----------------------------------|--------------------------------------| 

Chorus 
e|-----7-5-7-5-3-2---3-2-0-----0-------0-------------------------------------------0-|-------------------| 
B|-0-0---------------------0---------0---3-1-0---1-0---------------1-1-0---1-0-------|-------------------| 
G|-------------------------------0-3-----------------2-1---2---2---------------0-----|-------------------| 
D|-----------------------------------------------------------------------------------|-------------------| 
A|-----------------2---------2-------------------------------0---0-------2-----------|-------------------| 
E|---------------------------------------------0---------0-----------------------0---|-------------------| 

e|---------------3-3-2-3-2-3-3-2-3-2---3-2-3-2-3-3-2-3-2---0-0-0-2-3-0-0-0-2-3-0-0-0-2-3-6---3---7-----|-| 
B|-5---------------------------------------------------------------------------------------------------|-| 
G|---3---5-3-1-----------------------3-------------------4---------------------------------------------|-| 
D|---------------------------------------------------------------------------------------------------9-|-| 
A|-------------3---------------------------------------------------------------------------------------|-| 
E|-----3-----------------------------------------------------------------------------------------------|-| 

e|-8---------7----12-12---12-12-12----12-12----------0-|-------------------------------------------------| 
B|-----11-----------------------------------12-13-12---|-------------------------------------------------| 
G|-----------------------------------------------------|-------------------------------------------------| 
D|-----------------------------------------------------|-------------------------------------------------| 
A|-----------------------------------------------------|-------------------------------------------------| 
E|----------------------------------0------------------|-------------------------------------------------| 
  

top 5 | misc cartoons
top infantis
Outras músicas do artista letras do(a) Misc Cartoons
Top cifras »Top artistas »
Petaxxon Comunicação Online
Cifras.com.br - Melhor e mais completo site de cifras e tablaturas do Brasil
Mais de 1 milhão de acordes de músicas cadastradas desde 2003
As informações contidas no nosso site são colaborações de seus usuários e podem conter erros, sendo assim, não nos responsabilizamos sobre nenhuma destas.
close
menos
mais
close
Cor dos acordes:

Cor da letra:

 

save
close
close
 
redimensionar