Cifras e Tablaturas
Misc Cartoons

Misc Cartoons

Bionicle Heroes - Avaks Stronghold Low

Cifras Cancelar Versão de Impressão

Misc Cartoons - Bionicle Heroes - Avaks Stronghold Low

Tom:

  			
Verse 
 (     Repeat this 3 times      ) 
e|------------------------------|-----------------------------| 
B|------------------------------|-----------------------------| 
G|------------------------------|-----------------------------| 
D|------------------------------|---------------3-------------| 
A|------------5---5-3-0-3-0-----|-----------5-----5-3-5-3-0---| 
D|--0---0-3-5---------------5-3-|-0---0-3-5-----------------5-| 

 (     Repeat this 3 times      ) 
e|------------------------------|-----------------------------| 
B|------------------------------|-----------------------------| 
G|------------------------------|-----------------------------| 
D|------------------------------|---------------3-------------| 
A|------------5---5-3-0-3-0-----|-----------5-----5-3-5-3-0---| 
D|--0---0-3-5---------------5-3-|-0---0-3-5-----------------5-| 

 (     Repeat this 3 times      ) 
e|------------------------------|-----------------------------| 
B|------------------------------|-----------------------------| 
G|------------------------------|-----------------------------| 
D|------------------------------|---------------3-------------| 
A|------------5---5-3-0-3-0-----|-----------5-----5-3-5-3-0---| 
D|--0---0-3-5---------------5-3-|-0---0-3-5-----------------5-| 

 (     Repeat this 2 times      ) 
e|------------------------------|---------------------------|--------------------------------| 
B|------------------------------|---------------------------|--------------------------------| 
G|------------------------------|---------------------------|---------------5----------------| 
D|------------------------------|---------7---7-5---5-------|-----------7-----7-5---5--------| 
A|------------5---5-3-0-3-0-----|-0---3-7---------7---7-5-3-|-0---0-3-7-----------7---7-5-3--| 
D|--0---0-3-5---------------5-3-|---------------------------|--------------------------------| 

 (     Repeat this 2 times      )(     Repeat this 2 times    )(     Repeat this 2 times     ) 
e|------------------------------|-----------------------------|------------------------------| 
B|------------------------------|-----------------------------|------------------------------| 
G|------------------------------|-----------------------------|------------------------------| 
D|------------------------------|-----------3---3-------------|------------3---3-------------| 
A|------------5---5-3-0-3-0-----|-----------------5-3-5-3-0---|----------5-------5-3-5-3-0---| 
D|--0---0-3-5---------------5-3-|-0---0-3-5-----------------5-|--3---3-5-------------------5-| 

 (     Repeat this 2 times      ) 
e|------------------------------|-----------------------------|--------------------------------| 
B|------------------------------|-----------------------------|--------------------------------| 
G|------------------------------|-----------------------------|---------------5----------------| 
D|------------3---3-------------|-----------7---7-5---5-------|-----------7-----7-5---5--------| 
A|--0---0-3-5-------5-3-5-3-0---|-0---0-3-7---------7---7-5-3-|-0---0-3-7-----------7---7-5-3--| 
D|----------------------------5-|-----------------------------|--------------------------------| 

 Bridge 
 (              Play this 3 times              ) 
e|---------------------------------------------|---------------------------------------------------| 
B|---------------------------------------------|---------------------------------------------------| 
G|---------------------------------------------|-----------------------7--7--7--7-7-5--------------| 
D|---------------------------------------------|--------------------------------------7-5-7-5------| 
A|--0--0-------------1-----0--0-------------6--|--0--0-------------1--------------------------8-5--| 
D|--0--0---0-0---0-0-1-----0--0---0-0---0-0-6--|--0--0---0-0---0-0-1-------------------------------| 
           '     '                '     '                '     ' 

Outro 
e|-----------------------------------------------------------| 
B|-----------------------------------------------------------| 
G|-----------------------------------------------------------| 
D|-----------------------------------------3~~~----------5~~~| 
A|------------5~~~----------7~~~-----------------------------| 
D|--0---0-3-5-----0---0-3-5-----0---0-3-5------0---0-3-5-----| 


************************************ 

| ~   Vibrato 
| '  Palm mute 

************************************ 
    	
fixar
fixar inscrever-se

enviado porenviado por: marcnagel
cifra enviadaCorrigida por: sem correções
logo top cifrasComente
ico música do artistaMúsicas deste artista
ico curtiuCurtiu?
ico destaqueDestaque
Petaxxon Comunicação Online

Cifras.com.br - Melhor e mais completo site de cifras e tablaturas do Brasil Mais de 1 milhão de acordes de músicas cadastradas desde 2003
As informações contidas no nosso site são colaborações de seus usuários e podem conter erros, sendo assim, não nos responsabilizamos sobre nenhuma destas.

close
menos
mais
close
Cor dos acordes:

Cor da letra:

close
Alinhar acordes a direita Alinhar acordes a esquerda Alinhar acordes em baixo Alinhar acordes no topo
close
  Mostrar todos os acordes Esconder acordes muito fáceis Esconder acordes fáceis Esconder acordes intermediários
redimensionar
glossário