Cifras e Tablaturas
Misc Cartoons

Misc Cartoons

Doukyuusei - Bgm 2

Cifras Cancelar Versão de Impressão
cifras

Misc Cartoons - Doukyuusei - Bgm 2

fixar na tela  
Exibindo: vídeo-aula ver clipes redimensionar

Tom:

  
Intro 
e|-----------------------------------------------------------------------------------------------------| 
B|---1-------0--1--------0--1---------0--1--------5s4--3-----------------------------------------------| 
G|----------0-----------0-----------0------------------------------------------------------------------| 
D|------2----------2-----------2-------------2s5-------------------------------------------------------| 
A|---3----------3-----------3------------3-------------------------------------------------------------| 
E|---------3----------3-----------3--------------------------------------------------------------------| 

Verse 
e|---------------0-----------------------------------------------------3p0-----------------------------| 
B|---1--------3--------1------5--------3-----------3-----------------------0--1-------0---4---3--------| 
G|-----------------------------------------5----------2--------4--0------------------0----5---4--------| 
D|------2-----2-----2-----2------4-----4------4----4-----0-----0-----0-----------2---------------------| 
A|---3-----------3------------5------------5----------------------------------3------------------------| 
E|---------3-----------3------------5------------5----3-----3-----3----------------3------4---3--------| 

e|---------------0-----------------------------------------------------3p0--------------------3--------| 
B|---1--------3--------1------5--------3-----------3-----------------------0--1-------0-----3----3-----| 
G|-----------------------------------------5----------2--------4--0-----------------------3------------| 
D|------2-----2-----2-----2------4-----4------4----4-----0-----0-----0-----------2----------2----2-----| 
A|---3-----------3------------5------------5----------------------------------3-----------3---3--------| 
E|---------3-----------3------------5------------5----3-----3-----3----------------3-------------------| 

e|----------0----------------------0---------------------------0---------------------------------------| 
B|---1--3-------3--1-------1---3-------3----1-----1----1---3-------------------------------------------| 
G|-----------------------2----------------1-----------2------------------------------------------------| 
D|------3-------3------3-------------------------------------------------------------------------------| 
A|-------------------------------------1-------1----1------1-------------------------------------------| 
E|---1------1--------1---------1-----------------------------------------------------------------------| 

e|----------0----------------------0------------------0------------------------------------------------| 
B|---1--3-------3--1-------1---3-------3--------------3----1-------------------------------------------| 
G|-------------------------------------3-----3----3--------3-------------------------------------------| 
D|------3-------3-------------------------0------------------------------------------------------------| 
A|----------------------------------------------------3------------------------------------------------| 
E|---1------1--------1---------1-------3--------3----------2-------------------------------------------| 

e|----------0----------------------0-------------------------------------------------------------------| 
B|---1--3-------3--1-------1---3-------8---------------8------8----------------------------------------| 
G|-------------------------------------7-----7----7----7---7-------------------------------------------| 
D|------3-------3-------------------------6------------------------------------------------------------| 
A|-----------------------------------------------------------------------------------------------------| 
E|---1------1--------1---------1-------6--------6----6-----6-------------------------------------------| 

e|----------0----------------------0--------------------3----------------------------------------------| 
B|---1--3-------3--1-------1---3------3-----------------4----------------------------------------------| 
G|-----------------------2------------4-----0----0---0-------------------------------------------------| 
D|------3-------3------3-----------------0-------------------------------------------------------------| 
A|-----------------------------------------------------------------------------------------------------| 
E|---1------1--------1---------1------3-------3----3---------------------------------------------------| 

e|---------------0-----------------------------------------------------3p0-----------------------------| 
B|---1--------3--------1------5--------3-----------3-----------------------0--1-------0--4---3---------| 
G|-----------------------------------------5----------2--------4--0------------------0---5---4---------| 
D|------2-----2-----2-----2------4-----4------4----4-----0-----0-----0-----------2-------4---3---------| 
A|---3-----------3------------5------------5----------------------------------3------------------------| 
E|---------3-----------3------------5------------5----3-----3-----3----------------3-----4---3---------| 

e|---------------0-----------------------------------------------------3p0-----------------------------| 
B|---1--------3--------1------5--------3-----------3-----------------------0---------------------------| 
G|-----------------------------------------5----------2--------4--0------------------------------------| 
D|------2-----2-----2-----2------4-----4------4----4-----0-----0-----0---------------------------------| 
A|---3-----------3------------5------------5-----------------------------------------------------------| 
E|---------3-----------3------------5------------5----3-----3-----3------------------------------------| 

Outro 
e|----------------------------------------------------------------------------------------------------| 
B|--1-------0--1--------0--1--------0--1---------------------------------------------------------------| 
G|---------0----------0-----------0--------------------------------------------------------------------| 
D|-----2----------2-----------2------------------------------------------------------------------------| 
A|--3----------3-----------3-----------3---------------------------------------------------------------| 
E|-------3----------3-----------3----------------------------------------------------------------------| 



************************************ 

| p   Pull-off 
| t   Tapping 
| s   Slide 

************************************ 
  

top 5 | misc cartoons
top infantis
Outras músicas do artista letras do(a) Misc Cartoons
Top cifras »Top artistas »
Petaxxon Comunicação Online
Cifras.com.br - Melhor e mais completo site de cifras e tablaturas do Brasil
Mais de 1 milhão de acordes de músicas cadastradas desde 2003
As informações contidas no nosso site são colaborações de seus usuários e podem conter erros, sendo assim, não nos responsabilizamos sobre nenhuma destas.
close
menos
mais
close
Cor dos acordes:

Cor da letra:

 

save
close
close
 
redimensionar