Cifras e Tablaturas
Misc Cartoons

Misc Cartoons

Gabriel Dropout - Hallelujah?essaim Tv Size

Cifras Cancelar Versão de Impressão
cifras

Misc Cartoons - Gabriel Dropout - Hallelujah?essaim Tv Size

fixar na tela  
Exibindo: vídeo-aula ver clipes redimensionar

Tom:

  
Intro 
e|--------------------------|--------------------------|--------------------------|--------------------------| 
B|--------------------------|--------------------------|--------------------------|---------------5-----5----| 
G|--------------------------|--------------------------|--------------------------|---------------4-----4----| 
D|-2-----x---9-----x---5----|---------------5-----5----|-7-----x---8-----x---9----|---------------2-----2----| 
A|-2-----x---9-----x---5----|---------------5-----5----|-7-----x---9-----x---9----|--------------------------| 
E|-0-----x---7-----x---3----|---------------3-----3----|-5-----x---6-----x---7----|--------------------------| 

e|--------------------------|--------------------------|--------------------------|--------------------------| 
B|-5------------------------|--------------------------|--------------------------|--------------------------| 
G|-4-------------------5----|---------------5-----5----|--------------------------|--------------------------| 
D|-2-----x---2-----x---5----|---------------5-----5----|-7-----7-----5-----5------|-4--4--4--3------3------2-| 
A|-------x---2-----x---3----|---------------3-----3----|-7-----7-----5-----5------|-4--4--4--3------3------2-| 
E|-------x---0-----x--------|--------------------------|-5-----5-----3-----3------|-2--2--2--1------1------0-| 

e|--------------------------|--------------------------|--------------------------|--------------------------| 
B|--------------------------|--------------------------|--------------------------|--------------------------| 
G|--------------------------|------------------------2-|-----2--2--2--2--2--2--2--|-5--5--5--7------7--------| 
D|-----2--2--2--2--2--2--2--|-5--5--5--5------5------2-|-----2--2--2--2--2--2--2--|-5--5--5--7------7------2-| 
A|-----2--2--2--2--2--2--2--|-5--5--5--5------5------0-|-----0--0--0--0--0--0--0--|-3--3--3--5------5------2-| 
E|-----0--0--0--0--0--0--0--|-3--3--3--3------3--------|--------------------------|------------------------0-| 

e|--------------------------|--------------------------|--------------------------|--------------------------| 
B|--------------------------|--------------------------|--------------------------|--------------------------| 
G|--------------------------|------------------------2-|-----2--2--2--2--2--2--2--|-5--5--5--7------7--------| 
D|-----2--2--2--2--2--2--2--|-5--5--5--5------5------2-|-----2--2--2--2--2--2--2--|-5--5--5--7------7------2-| 
A|-----2--2--2--2--2--2--2--|-5--5--5--5------5------0-|-----0--0--0--0--0--0--0--|-3--3--3--5------5------2-| 
E|-----0--0--0--0--0--0--0--|-3--3--3--3------3--------|--------------------------|------------------------0-| 

Verse 
e|--------------------------|--------------------------|--------------------------|--------------------------| 
B|--------------------------|--------------------------|--------------------------|--------------------------| 
G|--------------------------|--------------------------|--------------------------|--------------------------| 
D|--------------------------|-----------------2--2--2--|--------------------------|-----------------2--2--2--| 
A|--------------------------|-----------------2--2--2--|--------------------------|-----------------2--2--2--| 
E|--------------------------|-----------------0--0--0--|--------------------------|-----------------0--0--0--| 

e|--------------------------|--------------------------|--------------------------|--------------------------| 
B|--------------------------|--------------------------|--------------------------|--------------------------| 
G|--------------------------|--------------------------|--------------------------|--------------------------| 
D|--------------------------|-----------------2--2--2--|--------------------------|--------------------------| 
A|--------------------------|-----------------2--2--2--|--------------------------|--------------------------| 
E|--------------------------|-----------------0--0--0--|--------------------------|--------------------------| 

       PM---------|                                      PM-------------| 
e|--------------------------|--------------------------|--------------------------|--------------------------| 
B|--------------------------|--------------------------|--------------------------|--------------------------| 
G|--------------------------|------------------------2-|------------------2-------|-5------x----7----7-------| 
D|-2----------------2-------|-5------x----5----5-----2-|------------------2-------|-5------x----7----7-----2-| 
A|-2----------------2-------|-5------x----5----5-----0-|---0--0--0--0--0--0-------|-3------x----5----5-----2-| 
E|-0----0--0--0--0--0-------|-3------x----3----3-------|--------------------------|------------------------0-| 

       PM---------| 
e|--------------------------|--------------------------|--------------------------|--------------------------| 
B|--------------------------|--------------------------|--------------------------|--------------------------| 
G|--------------------------|--------------------------|-2-----x---4-----x--------|--------------------------| 
D|------------------2-------|-5------x----5----5----5--|-2-----x---4-----x---2----|-------2--2--2------------| 
A|------------------2-------|-5------x----5----5----5--|-0-----x---2-----x---2----|-------2--2--2------------| 
E|---0--0--0--0--0--0-------|-3------x----3----3----3--|---------------------0----|-------0--0--0------------| 

e|--------------------------|--------------------------|--------------------------|--------------------------| 
B|--------------------------|--------------------------|--------------------------|--------------------------| 
G|--------------------------|--------------------------|--------------------------|--------------------------| 
D|--------------------------|--------------------------|--------------------------|--------------------------| 
A|--------------------------|--------------------------|--------------------------|--------------------------| 
E|--------------------------|--------------------------|--------------------------|--------------------------| 

e|--------------------------|--------------------------|--------------------------|--------------------------| 
B|--------------------------|--------------------------|--------------------------|--------------------------| 
G|--------------------------|--------------------------|--------------------------|--------------------------| 
D|--------------------------|--------------------------|-7------7------7------7--9|------9------9---9--------| 
A|--------------------------|--------------------------|-6------6------6------6--6|------6------6---6--------| 
E|--------------------------|--------------------------|-7------7------7------7--7|------7------7---7--------| 

Chorus 
e|--------------------------|--------------------------|--------------------------|--------------------------| 
B|--------------------------|--------------------------|--------------------------|--------------------------| 
G|--------------------------|--------------------------|--------------------------|--------------------------| 
D|-2-----x---2-----x---5----|---------------5-----5----|-7-----x---7-----x--10----|--------------12----12----| 
A|-2-----x---2-----x---5----|---------------5-----5----|-7-----x---7-----x--10----|--------------12----12----| 
E|-0-----x---0-----x---3----|---------------3-----3----|-5-----x---5-----x---8----|--------------10----10----| 

e|--------------------------|--------------------------|--------------------------|--------------------------| 
B|--------------------------|--------------------------|--------------------------|--------------------------| 
G|--------------------------|--------------------------|--------------------------|--------------------------| 
D|14-----x--14-----x--10----|--------------10----10----|-7-----7-----5-----5------|-4--4--4--3----3--3-------| 
A|14-----x--14-----x--10----|--------------10----10----|-7-----7-----5-----5------|-4--4--4--3----3--3-------| 
E|12-----x--12-----x---8----|---------------8-----8----|-5-----5-----3-----3------|-2--2--2--1----1--1-------| 

e|--------------------------|--------------------------|--------------------------|--------------------------| 
B|--------------------------|--------------------------|--------------------------|--------------------------| 
G|--------------------------|--------------------------|--------------------------|--------------------------| 
D|-2-----x---2-----x---5----|---------------5-----5----|-7-----x---7-----x--10----|--------------12----12----| 
A|-2-----x---2-----x---5----|---------------5-----5----|-7-----x---7-----x--10----|--------------12----12----| 
E|-0-----x---0-----x---3----|---------------3-----3----|-5-----x---5-----x---8----|--------------10----10----| 

e|--------------------------|--------------------------|--------------------------|--------------------------| 
B|--------------------------|--------------------------|--------------------------|--------------------------| 
G|--------------------------|--------------------------|--------------------------|--------------------------| 
D|14-----x--14-----x--10----|--------------10----10----|-7-----7-----5-----5------|-7-----7-----5-----5------| 
A|14-----x--14-----x--10----|--------------10----10----|-7-----7-----5-----5------|-7-----7-----5-----5------| 
E|12-----x--12-----x---8----|---------------8-----8----|-5-----5-----3-----3------|-5-----5-----3-----3------| 

e|--------------------------|--------------------------|--------------------------|--------------------------| 
B|--------------------------|--------------------------|--------------------------|--------------------------| 
G|--------------------------|--------------------------|--------------------------|------------------------2-| 
D|-7-----7-----5-----5------|-4--4--4--3------3------2-|-----2--2--2--2--2--2--2--|-5--5--5--5------5------2-| 
A|-7-----7-----5-----5------|-4--4--4--3------3------2-|-----2--2--2--2--2--2--2--|-5--5--5--5------5------0-| 
E|-5-----5-----3-----3------|-2--2--2--1------1------0-|-----0--0--0--0--0--0--0--|-3--3--3--3------3--------| 

e|--------------------------|--------------------------|--------------------------|--------------------------| 
B|--------------------------|--------------------------|--------------------------|--------------------------| 
G|-----2--2--2--2--2--2--2--|-5--5--5--7------7--------|--------------------------|------------------------2-| 
D|-----2--2--2--2--2--2--2--|-5--5--5--7------7------2-|-----2--2--2--2--2--2--2--|-5--5--5--5------5------2-| 
A|-----0--0--0--0--0--0--0--|-3--3--3--5------5------2-|-----2--2--2--2--2--2--2--|-5--5--5--5------5------0-| 
E|--------------------------|------------------------0-|-----0--0--0--0--0--0--0--|-3--3--3--3------3--------| 

e|--------------------------|--------------------------|--------------------------|--------------------------| 
B|--------------------------|--------------------------|--------------------------|--------------------------| 
G|-----2--2--2--2--2--2--2--|-5--5--5--7------7------x-|--------------------------|--------------------------| 
D|-----2--2--2--2--2--2--2--|-5--5--5--7------7------x-|-7--7--7------5--5--5-----|-4--4--4--3---------------| 
A|-----0--0--0--0--0--0--0--|-3--3--3--5------5------x-|-7--7--7------5--5--5-----|-4--4--4--3---------------| 
E|--------------------------|--------------------------|-5--5--5------3--3--3-----|-2--2--2--1---------------| 

************************************ 

| PM Palm mute 
| x  Muted string 

************************************ 
  

top 5 | misc cartoons
top infantis
Outras músicas do artista letras do(a) Misc Cartoons
Top cifras »Top artistas »
Petaxxon Comunicação Online
Cifras.com.br - Melhor e mais completo site de cifras e tablaturas do Brasil
Mais de 1 milhão de acordes de músicas cadastradas desde 2003
As informações contidas no nosso site são colaborações de seus usuários e podem conter erros, sendo assim, não nos responsabilizamos sobre nenhuma destas.
close
menos
mais
close
Cor dos acordes:

Cor da letra:

 

save
close
close
 
redimensionar