Cifras e Tablaturas
Misc Cartoons

Misc Cartoons

I Didnt Know I Could Feel This Way

Cifras Cancelar Versão de Impressão
cifras

Misc Cartoons - I Didnt Know I Could Feel This Way

fixar na tela  
Exibindo: vídeo-aula ver clipes redimensionar

Tom:

  
Intro 

e|--------------------------------------0-------0-2-3---3-2---2-0------------| 
B|-0-1-3-----------0----0-1-3-------0-1---1-3---------1-----0-----3-0-1------| 
G|-------2-2-2-0-2------------2-2-2------------------------------------------| 
D|---------------------------------------------------------------------------| 
A|---------------------------------------------------------------------------| 
E|---------------------------------------------------------------------------| 
  I've never had this feeling before.. 

e|------------------------------------0------0-2-3---3-2---2-0---0-0-2-4-----| 
B|-1-1-3-----------0--0-1-3-------0-1---1-3--------1-----0-------------------| 
G|-------2-2-2-0-2----------2-2-2--------------------------------------------| 
D|---------------------------------------------------------------------------| 
A|---------------------------------------------------------------------------| 
E|---------------------------------------------------------------------------| 
  I never felt my heart be so fast.. 


Chorus 

e|-4h5-0-------------------------0--0-0-2------------------------------------| 
B|-------2-0---0-2-2-0-0---0-3-1--3-------0----------------------------------| 
G|-----------2------------2--------------------------------------------------| 
D|---------------------------------------------------------------------------| 
A|---------------------------------------------------------------------------| 
E|---------------------------------------------------------------------------| 
  Someone in my life.. 

e|-0-0-2-4---4h5-0--------------------------0---0-0-2------------------------| 
B|-----------------2-0---0-2-2-0------0-3-1---3------------------------------| 
G|---------------------2---------2---2---------------2-----------------------| 
D|---------------------------------------------------------------------------| 
A|---------------------------------------------------------------------------| 
E|---------------------------------------------------------------------------| 
  Its so crazy.. 


Verse 

e|--------------------------------------0------------------------------------| 
B|-0-1-3-----------0----0-1-3-------0-1---1-3--------------------------------| 
G|-------2-2-2-0-2------------2-2-2------------------------------------------| 
D|---------------------------------------------------------------------------| 
A|---------------------------------------------------------------------------| 
E|---------------------------------------------------------------------------| 
  she makes me warm and happy inside.. 

e|0-2-3----3-2---2-0-------0-0---2----0---2h4-0------------------------------| 
B|------1------0---------------0--------0------------------------------------| 
G|-------------------2-------------------------------------------------------| 
D|---------------------------------------------------------------------------| 
A|---------------------------------------------------------------------------| 
E|---------------------------------------------------------------------------| 
  All these feelings .. 

e|-0-2-4---4h5-0---------------1-2-------------------------------------------| 
B|-----------------2-0---0-2-7-----------------------------------------------| 
G|---------------------2-----------------------------------------------------| 
D|---------------------------------------------------------------------------| 
A|---------------------------------------------------------------------------| 
E|---------------------------------------------------------------------------| 
  Its crazy.. 
e|---------0---2-0-----------0---2-0-3-2-----------0---2-0-5-----------------| 
B|---0-3-1---3-----------3-0---3-------------0-3-1---3-----------------------| 
G|-2----------------------------------------2----------------2---------------| 
D|---------------------------------------------------------------------------| 
A|---------------------------------------------------------------------------| 
E|---------------------------------------------------------------------------| 
  I didn't know.. 


************************************ 
| /   Slide up 
| h   Hammer-on 
************************************ 
  

top 5 | misc cartoons
top infantis
Outras músicas do artista letras do(a) Misc Cartoons
Top cifras »Top artistas »
Petaxxon Comunicação Online
Cifras.com.br - Melhor e mais completo site de cifras e tablaturas do Brasil
Mais de 1 milhão de acordes de músicas cadastradas desde 2003
As informações contidas no nosso site são colaborações de seus usuários e podem conter erros, sendo assim, não nos responsabilizamos sobre nenhuma destas.
close
menos
mais
close
Cor dos acordes:

Cor da letra:

 

save
close
close
 
redimensionar