Cifras e Tablaturas
Misc Cartoons

Misc Cartoons

The Smurfs Mega Drive - The Forest

Cifras Cancelar Versão de Impressão

Misc Cartoons - The Smurfs Mega Drive - The Forest

Tom:

  			
Intro                
e|-x-x-x-x-x-x-x-x-|   
B|-x-x-x-x-x-x-x-x-|    
G|-x-x-x-x-x-x-x-x-|    
D|-x-x-x-x-x-x-x-x-| 
A|-x-x-x-x-x-x-x-x-| 
E|-x-x-x-x-x-x-x-x-| 

Verse 
e|--------------------------|-----------------------------------|--------------------------| 
B|--------------------------|-----------------------------------|--------------------------| 
G|--------------------------|------------------4~--6~--4--6--4~-|--------------------------| 
D|---------3--5--6~--5~--3~-|------------3--5-------------------|---------3--5--6~--5~--3~-| 
A|-3--5--6------------------|--3--5---6-------------------------|-3--5--6------------------| 
E|--------------------------|-----------------------------------|--------------------------| 

e|----------------|---------------------7h9h10-9b-9b-9~-|-------------------------| 
B|----------------|---------------7h9h10----------------|-------------------------| 
G|----------------|--------7h9h10-----------------------|-------------------------| 
D|-3~---5-3-------|-7h9h10------------------------------|---------3--5--6~--5~--3-| 
A|----------6-5-3-|-------------------------------------|-3--5--6-----------------| 
E|----------------|-------------------------------------|-------------------------| 

e|--------------------------------|---------------------------|-----------------------------| 
B|--------------------------------|---------------------------|-----------------------------| 
G|---------------4~--6~--4--6--4~-|---------------------------|-----------------------------| 
D|---------3--5-------------------|----------3--5--6~--5~--3~-|-3--------4~--------4~-------| 
A|-3--5--6- ----------------------|--3--5--6------------------|---3-4-6~----3-4-6~----3-4-1-| 
E|--------------------------------|---------------------------------------------------------| 

Bridge 
e|---------------|-------------------------------5-7-8-|--5----7----8----||5p7p8-||x5 
B|---------------|-------------------------5-7-8-------|-----------------||------|| 
G|---------------|-------------------5-7-8-------------|-----------------||------|| 
D|-3-4-3-----4-3-|-------------5-7-8-------------------|-----------------||------|| 
A|-------4-5-----|-------5-7-8-------------------------|-----------------||------|| 
E|---------------|-5-7-8-------------------------------|-----------------||------|| 

Chorus guitar 1 loop 
  P.M.************************ 
e|----------------------------| 
B|----------------------------| 
G|----------------------------| 
D|----------------------------| 
A|----------------------------| 
E|-0-0--0--0-0--0--0-0--0-0-0-| 
    
Chorus guitar 2 
e|-----------------|-----------------------|------------------|------------------------|-------------| 
B|-----------------|-----------------------|------------------|------------------------|-------------| 
G|-----------------|-----------------------|------------------|------------------------|-------------| 
D|------5-7-8------|-5-7-8------5-7-8~-7-5-|-------5-7-8------|-5-7-8-------5-7-8~-7-7~|-------------| 
A|-5-7-8------5-7-8|-------5-7-8-----------|-5-7-8------5-7-8-|------5-7-8-------------|-5-5-5-5-(5)-| 
E|-----------------|-----------------------|------------------|------------------------|-3-3-3-3-(5)-| 

e|-------------| 
B|-------------| 
G|-------------| 
D|-------------| 
A|-7-7-7-7-(7)-| 
E|-5-5-5-5-(5)-| 

Outro 
e|-------------------------------| 
B|-------------------------------| 
G|-------------------------------| 
D|-------------5-----------7-(7)-| 
A|-5---(5)--5--3--5--7--3--5-(5)-| 
E|-3---(3)--3-----3--5--1--------| 


************************************ 

| x   Dead note 
| (n) Ghost note 
| h   Hammer-on 
| p   Pull-off 
| b   Bend 
| ~   Vibrato 
| PM  Palm mute 

************************************ 
    	
fixar
fixar inscrever-se

enviado porenviado por: PAULLET3
cifra enviadaCorrigida por: sem correções
logo top cifrasComente
ico música do artistaMúsicas deste artista
ico curtiuCurtiu?
ico destaqueDestaque
Petaxxon Comunicação Online

Cifras.com.br - Melhor e mais completo site de cifras e tablaturas do Brasil Mais de 1 milhão de acordes de músicas cadastradas desde 2003
As informações contidas no nosso site são colaborações de seus usuários e podem conter erros, sendo assim, não nos responsabilizamos sobre nenhuma destas.

close
menos
mais
close
Cor dos acordes:

Cor da letra:

close
Alinhar acordes a direita Alinhar acordes a esquerda Alinhar acordes em baixo Alinhar acordes no topo
close
  Mostrar todos os acordes Esconder acordes muito fáceis Esconder acordes fáceis Esconder acordes intermediários
redimensionar
glossário