Cifras e Tablaturas
Misc Children

Misc Children

Vader Jacob

Cifras Cancelar Versão de Impressão
cifras

Misc Children - Vader Jacob

fixar na tela  
Exibindo: vídeo-aula ver clipes redimensionar
  
Verse 
Vader Jacob Vader Jacob             Slaapt gij nog Slaapt gij nog 
e|--------------------------------------------------------------------------| 
B|--------------------------------------------------------------------------| 
G|--------------------------------------0---------------0-------------------| 
D|---0---2--------0---2------2------3--------2------3-----------------------| 
A|-3-------3---3--------3---------------------------------------------------| 
E|--------------------------------------------------------------------------| 

verse 2 
 Alle klokken luiden    Alle klokken luiden Bim bam bom Bim bam bom 
e|--------------------|------------------------------------------------------| 
B|--------------------|------------------------------------------------------| 
G|-0-2--0-------------|--0-2--0----------------------------------------------| 
D|----------3---2-----|-----------3---2--------------------------------------| 
A|-----------------3--|------------------3----3-------3----3-------3---------| 
E|--------------------|---------------------------3------------3-------------| 
  

cifra enviadasem correções
enviado porenviada por:ubirbomfim
top 5 | misc children
top rock'n roll
Outras músicas do artista letras do(a) Misc Children
Top cifras »Top artistas »
Petaxxon Comunicação Online
Cifras.com.br - Melhor e mais completo site de cifras e tablaturas do Brasil
Mais de 1 milhão de acordes de músicas cadastradas desde 2003
As informações contidas no nosso site são colaborações de seus usuários e podem conter erros, sendo assim, não nos responsabilizamos sobre nenhuma destas.
close
menos
mais
close
Cor dos acordes:

Cor da letra:

 

save
close
close
 
redimensionar