Cifras e Tablaturas
Misc Christmas

Misc Christmas

Es Wird Scho Glei Dumpa

Cifras Cancelar Versão de Impressão
cifras

Misc Christmas - Es Wird Scho Glei Dumpa

fixar na tela  
Exibindo: vídeo-aula ver clipes redimensionar

Tom:

  
Capo: 2

Verse                    
E|----------------|----------------|-----0---0------------|----------------|----------------| 
B|----------------|-----------0----|-2----------------3---|-2----2----0----|----------------| 
G|----------------|-2----2---------|----------------------|----------------|-2--------------| 
D|-----------2----|------2----2----|---------2----2-------|------2----0----|-----------2----| 
A|-0--------------|-0--------------|-0--------------------|-0--------------|-0--------------| 
E|------0----0----|----------------|----------------------|----------------|------0----0----| 
             Es     wird scho glei   dum-    pa,      es    wird scho glei   Nacht,    drum   
                                                          
E|----------------|-----0---0------------|----------------|-----------0----|-0---------0----| 
B|-----------0----|-2----------------3---|-2----2----0----|----------------|------2---------| 
G|-2----2---------|----------------------|----------------|-2--------------|----------------| 
D|------2----2----|---------2----2-------|------2----0----|----------------|------2----2----| 
A|-0--------------|-0--------------------|-0--------------|-0--------------|-0--------------| 
E|----------------|----------------------|----------------|------0----0----|----------------| 
   kimm i    zu     dir     her      mei   Heiland   auf'd  Wacht.    Will   singa     a 
    
E|-0-----------------|----------------|----------------|----------------|-----0---0------------| 
B|-----3---0----3----|-2---------2----|-0--------------|-----------0----|-2----------------3---| 
G|-------------------|------2---------|----------------|-2----2---------|----------------------| 
D|---------0----0----|------2----2----|------2----2----|------2----2----|---------2----2-------| 
A|-------------------|-0--------------|-----------2----|-0--------------|-0--------------------| 
E|-0-----------------|----------------|-0--------------|----------------|----------------------| 
   Lia-    dl,  dem    Liabling, dem    kloan,    du     magst ja  net    schla-  f'n,     i  

E|----------------|-------------------|-------------------|-------------------|-0--------------------| 
B|-2----2----0----|-----------3-------|-----------0-------|---------------2---|------2-------0-------| 
G|----------------|-2-------------1---|-2-----------------|-2---------2-------|----------2-----------| 
D|------2----0----|------2------------|------2--------2---|------2----2-------|------2-----------2---| 
A|-0--------------|-0-----------------|-0-----------------|-0-----------------|-0--------------------| 
E|----------------|-----------0-------|-----------0-------|-------------------|--------------0-------| 
   her' di   nur    woan.     Hei       hei,      hei       hei,      Schlaf    siaß, herz-  liabs   
    
E|----------------| 
B|----------------| 
G|-2--------------| 
D|------2----2----| 
A|-0--------------| 
E|----------------| 
   Kind. 
  

top 5 | misc christmas
top rock'n roll
Outras músicas do artista letras do(a) Misc Christmas
Top cifras »Top artistas »
Petaxxon Comunicação Online
Cifras.com.br - Melhor e mais completo site de cifras e tablaturas do Brasil
Mais de 1 milhão de acordes de músicas cadastradas desde 2003
As informações contidas no nosso site são colaborações de seus usuários e podem conter erros, sendo assim, não nos responsabilizamos sobre nenhuma destas.
close
menos
mais
close
Cor dos acordes:

Cor da letra:

 

save
close
close
 
redimensionar