Cifras e Tablaturas
Misc Christmas

Misc Christmas

Josef Lieber Josef Mein

Cifras Cancelar Versão de Impressão
cifras

Misc Christmas - Josef Lieber Josef Mein

fixar na tela  
Exibindo: vídeo-aula ver clipes redimensionar

Tom:

  
Capo 2

Verse 
E|-0--------------|----------------|-0---------2----|-0--------------|-0--------------| 
B|-2---------2----|-----------2----|-2---------2----|-2--------------|-2---------2----| 
G|-----------2----|-2---------2----|----------------|----------------|-----------2----| 
D|------2----2----|-2----2----2----|------2----2----|------2----2----|------2----2----| 
A|-0--------------|-0--------------|-0--------------|-0--------------|-0--------------| 
E|----------------|----------------|----------------|----------------|----------------| 

E|----------------|-0---------2----|-0--------------|----------------|-----------0----| 
B|-----------2----|-2---------2----|-2--------------|-3---------3----|-3---------0----| 
G|-2----2----2----|----------------|----------------|-1---------1----|-1--------------| 
D|-2----2----2----|------2----2----|------2----2----|------0----0----|------0----0----| 
A|-0--------------|-0--------------|-0--------------|----------------|----------------| 
E|----------------|----------------|----------------|-0--------------|-0--------------| 

E|----------------|----------------|-0--------------|----------------|----------------| 
B|-3---------2----|-0---------2----|-2---------2----|-----------2----|-0--------------| 
G|-1---------1----|-1---------1----|-----------2----|-2---------2----|-1---------1----| 
D|------0----0----|------0----0----|------2----2----|-2----2----2----|-----------0----| 
A|----------------|----------------|-0--------------|-0--------------|------2----2----| 
E|-0--------------|-0--------------|----------------|----------------|-0--------------| 

E|----------------|----------------|--------| 
B|-0---------2----|----------------|-2------| 
G|-1---------1----|-2--------------|-2------| 
D|----------------|-2----2----2----|-2------| 
A|------2----2----|-0--------------|-0------| 
E|-0--------------|----------------|--------| 
  

top 5 | misc christmas
top rock'n roll
Outras músicas do artista letras do(a) Misc Christmas
Top cifras »Top artistas »
Petaxxon Comunicação Online
Cifras.com.br - Melhor e mais completo site de cifras e tablaturas do Brasil
Mais de 1 milhão de acordes de músicas cadastradas desde 2003
As informações contidas no nosso site são colaborações de seus usuários e podem conter erros, sendo assim, não nos responsabilizamos sobre nenhuma destas.
close
menos
mais
close
Cor dos acordes:

Cor da letra:

 

save
close
close
 
redimensionar