Cifras e Tablaturas
Misc Christmas

Misc Christmas

O Tannenbaum

Cifras Cancelar Versão de Impressão
cifras

Misc Christmas - O Tannenbaum

fixar na tela  
Exibindo: vídeo-aula ver clipes redimensionar
  
Verse    
   C                                                              G7 
E|----------------|----------------------|-0----0--0--------0---|-----0---1---------| 
B|----------------|-1----1--1--------3---|----------------------|-3------------0----| 
G|-----------0----|----------------------|----------------------|-------------------| 
D|------2----2----|---------2----2-------|---------2----2-------|---------0----0----| 
A|-3--------------|-3--------------------|-3--------------------|-------------------| 
E|----------------|----------------------|----------------------|-3-----------------| 

   C                           F              G7 
E|---------------3---|-3---0---5--------3---|-3---1---1--------1---|-1-------3--------1---| 
B|-3----1------------|----------------------|----------------------|-----3----------------| 
G|-------------------|---------3----3-------|----------------------|----------------------| 
D|------2----2-------|----------------------|---------0----0-------|---------0----0-------| 
A|-3-----------------|-3--------------------|----------------------|----------------------| 
E|-------------------|----------------------|-3--------------------|-3--------------------| 

   C                                                                    G7 
E|-1---0---0------------|----------------------|-0----0--0--------0---|-----0---1---------| 
B|----------------------|-1----1--1--------3---|----------------------|-3------------0----| 
G|------------------0---|----------------------|----------------------|-------------------| 
D|---------2----2-------|---------2----2-------|---------2----2-------|---------0----0----| 
A|-3--------------------|-3--------------------|-3--------------------|-------------------| 
E|----------------------|----------------------|----------------------|-3-----------------| 

   C 
E|-------------------| 
B|-3----1------------| 
G|-------------------| 
D|------2----2-------| 
A|-3-----------------| 
E|-------------------| 

 
  

cifra enviadasem correções
enviado porenviada por:andrsouza
top 5 | misc christmas
top rock'n roll
Outras músicas do artista letras do(a) Misc Christmas
Top cifras »Top artistas »
Petaxxon Comunicação Online
Cifras.com.br - Melhor e mais completo site de cifras e tablaturas do Brasil
Mais de 1 milhão de acordes de músicas cadastradas desde 2003
As informações contidas no nosso site são colaborações de seus usuários e podem conter erros, sendo assim, não nos responsabilizamos sobre nenhuma destas.
close
menos
mais
close
Cor dos acordes:

Cor da letra:

 

save
close
close
 
redimensionar