Cifras e Tablaturas
Misc Computer Games

Misc Computer Games

Actraiser - Birth Of The People

Cifras Cancelar Versão de Impressão
cifras

Misc Computer Games - Actraiser - Birth Of The People

fixar na tela  
Exibindo: vídeo-aula ver clipes redimensionar
  
    Q=110 

    Gtr I 
                    ~~~                              ~~ 
     E  S  S  E  E  Q.    E    E  E  E.  S  S  S  E  Q 
||-----17-15----------------|---------------------------| 
||o-15-------18-17-18----18-|-17----15--15-17-15----15--| 
||--------------------------|----17--------------17-----| 
||--------------------------|---------------------------| 
||o-------------------------|---------------------------| 
||--------------------------|---------------------------| 
| 
|   Gtr II 
|    E  Q        E  Q.    E    E  E  E.  S  S  S  E  Q 
||--10----------12-13----13-|---------------------------| 
||o-----------------8-----8-|--------------------13-----| 
||--10----------12----------|-12----10-----12-------10--| 
||--12----------10----------|-10-----8-----10----14-12--| 
||o-----------------8-----8-|---------------------------| 
||--------------------------|---------------------------| 


                  ~~~ 
   E  S  S  E  E  Q.    E    E  E  E.  S  S  S  E  Q 
|----17-15----------------|--------------------------| 
|-15-------18-17-18----18-|-17----15--15-17-18-17-15-| 
|-------------------------|----17--------------------| 
|-------------------------|--------------------------| 
|-------------------------|--------------------------| 
|-------------------------|--------------------------| 
| 
|  E  Q        E  Q.    E    E  E  E.  S  S  S  E  Q 
|-10----------12-13----13-|--------------------12----| 
|-----------------8-----8-|--------------------------| 
|-10----------12----------|-12----10-----12-------10-| 
|-12----------10----------|-10-----8-----10----14-12-| 
|-----------------8-----8-|--------------------------| 
|-------------------------|--------------------------| 


   +Q   Q        H                   H             Q.                 S  S 
|---------------------------------|---------------13-----------------12-10-| 
|-(15)----------------------------|----------------------------------------| 
|---------------------------------|----------------------------------------| 
|---------------------------------|----------------------------------------| 
|---------------------------------|----------------------------------------| 
|---------------------------------|----------------------------------------| 
| 
|                                   Gtr III 
|  +Q   Q        H                   E  S  S  E E  S   S  S  S  S  S  S  S 
|---------------------------------|----------------------------------------| 
|---------------------------------|----------------------------10----------| 
|-(10)----------------------------|-------------------------10-------10----| 
|-(12)----------------------------|-15-12-11-12---12-----12----------------| 
|---------------------------------|-------------------12----------12----12-| 
|---------------------------------|-13-10--9-10----------------------------| 
| 
| Gtrs III, IV                      Gtr IV 
|   Q   E  S  S  E  S  S  E  S  S    E  S  S  E E  E      E     E     E 
|---------------------------------|----------------------------------------| 
|---------15-14-15----------------|----------------------------------------| 
|------------------14-13-14-------|----------------------------------------| 
|---------12-11-12----------15-14-|-15-12-11-12---10------------7----------| 
|------------------12-11-12-------|----------------------------------------| 
|---------------------------13-12-|-13-10--9-10----8------------5----------| 


                                                      ~~~~~~~~~~~~~~~~~~~~~~~~~~ 
   Q           Q           Q.                 S  S    H                       H 
|-12----------------------13-----------------12-10-|-12----------------------13----------| 
|-------------10-----------------------------------|-------------------------------------| 
|--------------------------------------------------|-------------------------------------| 
|--------------------------------------------------|-------------------------------------| 
|--------------------------------------------------|-------------------------------------| 
|--------------------------------------------------|-------------------------------------| 
| 
|  S  S  S  S  S  S  S  S  S   S  S  S  S  S  S  S    S  S  S  S  S  S  S  S  S  S  Q 
|--------------------------------------------------|-------------------------------------| 
|--------------------------------------------------|-------------------------------------| 
|-12----------12-----------------------14----------|-12----------12----------------14----| 
|----10-14----------14----15-----12----------15----|-------11----------14----15----------| 
|----12----12----12----12-----12----12----12----12-|----12----12----12----12----12-------| 
|--------------------------------------------------|-------------------------------------| 
| 
|  E     E     E     E     E      E     E             E     E     E     E     H 
|--------------------------------------------------|-------------------------------------| 
|--------------------------------------------------|-------------------------------------| 
|--9-----------------------7-----------------------|--9----------------------------------| 
|--------------7------------------------7----------|--------------7----------------------| 
|--7-----------------------5-----------------------|--7----------------------------------| 
|--------------5------------------------5----------|--------------5----------------------| 


                          ~~                               ~~ 
   +E   E     E     E     H         +E   E     E     E     H 
|-(13)-15----17----18------------|------------15----17--------------| 
|------------------------17------|-(17)-18----------------15--------| 
|--------------------------------|----------------------------------| 
|--------------------------------|----------------------------------| 
|--------------------------------|----------------------------------| 
|--------------------------------|----------------------------------| 
| 
|  +E   S  S  S  S  S  S  E  Q      +E   S  S  S  S  S  S  E  E  Q 
|--------------------------------|----------------------------------| 
|--------------------------------|----------------------------------| 
|-(14)-12-14-15-14-12-------12---|-(12)----12-14-12-----------------| 
|---------------------15---------|------15----------15-14-12----15--| 
|------------------------15------|----------------------------------| 
|--------------------------------|---------------------------13-----| 
| 
|   W                                W 
|--------------------------------|----------------------------------| 
|--------------------------------|----------------------------------| 
|--------------------------------|----------------------------------| 
|--------------------------------|----------------------------------| 
|--------------------------------|----------------------------------| 
|--------------------------------|----------------------------------| 


                                                 ~~ 
   +E   E     E     E     Q     Q     +E   S  S  Q    H 
|------------------15----------15--|-(15)--------------------------| 
|-(15)-17----18--------------------|------18-17-18-----------------| 
|------------------------18--------|-------------------------------| 
|----------------------------------|-------------------------------| 
|----------------------------------|-------------------------------| 
|----------------------------------|-------------------------------| 
| 
|  +E   S  S  S  S  S  S  E  E  Q     +E   S  S  E E  E  E  Q 
|----------------------------------|------------------------8------| 
|----------------------------------|-----------------10----10------| 
|------------12--------------------|-----------------11-11-11------| 
|-(15)-14-15----15-14-12-11----14--|-(14)-12-11-12------12---------| 
|----------------------------------|-------------------------------| 
|---------------------------12-----|-------------------------------| 
| 
|   W                                  H              E  E  E  E 
|----------------------------------|--------------------------17---| 
|----------------------------------|-----------------10----13------| 
|----------------------------------|-----------------11-11-14------| 
|----------------------------------|--------------------12---------| 
|----------------------------------|-------------------------------| 
|----------------------------------|-------------------------------| 


  Gtr V 
    E   S  S  S  S  S  S  E  E  E  E     E   S  S  S  S  S  S  E  E  E  E 
|------------------------------------|------------------------------------| 
|------------------------------------|------------------------------------| 
|------15-14-15-17-15-14-------------|------14----14-------14-------------| 
|------------------------14----17----|---------17----15-------------15----| 
|---------------------------15-------|------------------15----17----------| 
|------------------------------------|---------------------------18-------| 
| 
|  +E   S  S  S  S  S  S  E  E  Q       +E   S  S  E     E     E  E  Q 
|--(8)--------------------------6----|--(6)--------8-----------------5----| 
|-(10)-11-10-11-13-11-10--8-----8----|--(8)-10--8-10-----------6-----6----| 
|-(11)-12-11-12-14-12-11--9--9--9----|--(9)-10--9--------9-----7--7--7----| 
|------------12-------------10-------|------10----10----10-----8--8-------| 
|------------------------------------|------------------------------------| 
|------------------------------------|------------------------------------| 
| 
|  +E   S  S  S  S  S  S  E  E  E  E    +E   S  S  S  S  S  S  E  E  E  E 
|-(17)-15-14-15-17-15-------------15-|-(15)-------------------------------| 
|---------------------18-------------|------18-17-18-------------------18-| 
|------------------------------15----|---------------------14-------14----| 
|------------------------17----------|---------------15-17----15----------| 
|------------------------------------|---------------------------17-------| 
|------------------------------------|------------------------------------| 


                                    2/4 
    E   S  S  S  S  S  S  E  E  Q     +E   S  S  Q 
|----------------------------------|-------------------|| 
|----------------------------------|------------------o|| 
|------------------------------12--|-(12)-11----11-----|| 
|------14-12-14----12-12-11--------|---------14--------|| 
|---------------15----------12-----|------------------o|| 
|----------------------------------|-------------------|| 
| 
|  +E   S  S  S  S  S  S  E  E  Q     +E   S  S  Q 
|--(5)-----------------------------|-------------------|| 
|--(6)--8--6--8-----6--8--5-----8--|--(8)-------------o|| 
|--(7)--9--7--9--9--7--9--6--6--9--|--(9)-11--9-11-----|| 
|-------8--------8--------7--7-11--|-(11)-12-11-12-----|| 
|----------------------------------|------12----------o|| 
|----------------------------------|-------------------|| 
| 
|  +E   S  S  S  S  S  S  E  E  Q      E   S  S  Q 
|----------------------------------|-------------------|| 
|-(18)-------------------------17--|--17--15-14-15----o|| 
|----------------------------------|-------------------|| 
|------17-15-17-15-14-14-14--------|-------------------|| 
|---------------------------16-----|------------------o|| 
|----------------------------------|-------------------|| 
  

cifra enviadasem correções
enviado porenviada por:terr_schmitz
top 5 | misc computer games
top diversos
Outras músicas do artista letras do(a) Misc Computer Games
Top cifras »Top artistas »
Petaxxon Comunicação Online
Cifras.com.br - Melhor e mais completo site de cifras e tablaturas do Brasil
Mais de 1 milhão de acordes de músicas cadastradas desde 2003
As informações contidas no nosso site são colaborações de seus usuários e podem conter erros, sendo assim, não nos responsabilizamos sobre nenhuma destas.
close
menos
mais
close
Cor dos acordes:

Cor da letra:

 

save
close
close
 
redimensionar