Cifras e Tablaturas
Misc Computer Games

Misc Computer Games

Chrono Trigger - Ruined World

Cifras Cancelar Versão de Impressão
cifras

Misc Computer Games - Chrono Trigger - Ruined World

fixar na tela  
Exibindo: vídeo-aula ver clipes redimensionar
  
   Cm          Ddim        Bb          Gm7 
e|-3---------|-4---------|-1---------|-1---------| 
B|-4---------|-6---------|-3---------|-3---------| 
G|-5---------|-7---------|-3---------|-3---------| 
D|-----------|-----------|-----------|-----------| 
A|-----------|-----------|-----------|-----------| 
E|-----------|-----------|-----------|-3---------| 

   Cm          Ddim        Bb          Gm7 
e|-3---------|-4---------|-1---------|-1---------| 
B|-4---------|-6---------|-3---------|-3---------| 
G|-5---------|-7---------|-3---------|-3---------| 
D|-----------|-----------|-----------|-----------| 
A|-----------|-----------|-----------|-----------| 
E|-----------|-----------|-----------|-3---------| 

   Ab          Db          Cm          Cm 
e|-----------|-4---------|-3---------|-3---------| 
B|-4---------|-6---------|-4---------|-4---------| 
G|-5---------|-6---------|-5---------|-5---------| 
D|-6---------|-----------|-----------|-----------| 
A|-----------|-----------|-----------|-----------| 
E|-----------|-----------|-----------|-----------| 

   Ab          Db          Fm/C        Fdim/B 
e|-----------|-4---------|-4---------|-4---------| 
B|-4---------|-6---------|-6---------|-6---------| 
G|-5---------|-6---------|-5---------|-4---------| 
D|-6---------|-----------|-----------|-----------| 
A|-----------|-----------|-----------|-----------| 
E|-----------|-----------|-----------|-----------| 

(repeat from beginning) 
  

cifra enviadasem correções
enviado porenviada por:deivcavalcanti
top 5 | misc computer games
top diversos
Outras músicas do artista letras do(a) Misc Computer Games
Top cifras »Top artistas »
Petaxxon Comunicação Online
Cifras.com.br - Melhor e mais completo site de cifras e tablaturas do Brasil
Mais de 1 milhão de acordes de músicas cadastradas desde 2003
As informações contidas no nosso site são colaborações de seus usuários e podem conter erros, sendo assim, não nos responsabilizamos sobre nenhuma destas.
close
menos
mais
close
Cor dos acordes:

Cor da letra:

 

save
close
close
 
redimensionar