Cifras e Tablaturas
Misc Computer Games

Misc Computer Games

Crystalis - Cave Theme

Cifras Cancelar Versão de Impressão
cifras

Misc Computer Games - Crystalis - Cave Theme

fixar na tela  
Exibindo: vídeo-aula ver clipes redimensionar
  
     Gtr I 
      E  E  E  E  E  E  E  E       E  E  E  E  E  E  E  E 
e||-----12-11-12----12-11-12----|----11-10-11----11-10-11-| 
B||o-10----------10-------------|--9-----------9----------| 
G||-----------------------------|-------------------------| 
D||-----------------------------|-------------------------| 
A||o----------------------------|-------------------------| 
E||-----------------------------|-------------------------| 
 | 
 |   Gtr III 
 |    Q     Q     Q     E  S  S    H           H 
e||--------12----11-------------|-10----------------------| 
B||o-10-------------------12-13-|-------------12----------| 
G||-----------------------------|-------------------------| 
D||-----------------------------|-------------------------| 
A||o----------------------------|-------------------------| 
E||-----------------------------|-------------------------| 

    E  E  E  E  E  E E  E       E  E E E E E E E 
e|----10--9-10----10-9-10----|-----9-8-9---9-8-9--| 
B|--8-----------8------------|--7--------7--------| 
G|---------------------------|--------------------| 
D|---------------------------|--------------------| 
A|---------------------------|--------------------| 
E|---------------------------|--------------------| 
 | 
 |  Q     Q     Q    E  S  S    H.           Q 
e|-------10------------10----|--------------------| 
B|-------------12---------12-|-10-----------------| 
G|-12------------------------|--------------------| 
D|---------------------------|--------------------| 
A|---------------------------|--------------------| 
E|---------------------------|--------------------| 

    E E  E E  E E E  E       E E  E E  E E  E E 
e|----8--7-8----8-7--8----|----7--6-7----7--6-7-| 
B|--6---------6-----------|--5---------5--------| 
G|------------------------|---------------------| 
D|------------------------|---------------------| 
A|------------------------|---------------------| 
E|------------------------|---------------------| 
 | 
 |  Q    Q    Q   E  S  S    Q    Q    Q    Q 
e|------------------------|----------------19---| 
B|------13---12-----12-13-|-15---18---17--------| 
G|-10---------------------|---------------------| 
D|------------------------|---------------------| 
A|------------------------|---------------------| 
E|------------------------|---------------------| 

    E  E  E  E  E  E  E     E       E E E E  E E E E 
e|-----6--5--------6--5----------|----5-4-5------4-7--| 
B|--4--------4--4-----------4----|--3----------5------| 
G|-------------------------------|-----------4--------| 
D|-------------------------------|--------------------| 
A|-------------------------------|--------------------| 
E|-------------------------------|--------------------| 
 | 
 |  E  E  E  E  E  E  S  S  S  S    H        H 
e|-20-17-17-------------------17-|-16-----------------| 
B|----------17-17----------17----|----------17--------| 
G|----------------17-14-17-------|--------------------| 
D|-------------------------------|--------------------| 
A|-------------------------------|--------------------| 
E|-------------------------------|--------------------| 

    E  E  E  E  E  E  E  E       E  E  E  E  E  E  E  E 
e|----12-11-12----12-11-12----|----11-10-11----11-10-11-| 
B|-10----------10-------------|--9-----------9----------| 
G|----------------------------|-------------------------| 
D|----------------------------|-------------------------| 
A|----------------------------|-------------------------| 
E|----------------------------|-------------------------| 
 | 
 |  Q     Q     Q     E  S  S    H           H 
e|-------12----11-------------|-10----------------------| 
B|-10-------------------12-13-|-------------12----------| 
G|----------------------------|-------------------------| 
D|----------------------------|-------------------------| 
A|----------------------------|-------------------------| 
E|----------------------------|-------------------------| 

    E  E  E  E  E  E E  E       E  E E E E E E E 
e|----10--9-10----10-9-10----|-----9-8-9---9-8-9-| 
B|--8-----------8------------|--7--------7-------| 
G|---------------------------|-------------------| 
D|---------------------------|-------------------| 
A|---------------------------|-------------------| 
E|---------------------------|-------------------| 
 | 
 |  Q     Q     Q    E  S  S    H.           Q 
e|-------10------------10----|-------------------| 
B|-------------12---------12-|-10----------------| 
G|-12------------------------|-------------------| 
D|---------------------------|-------------------| 
A|---------------------------|-------------------| 
E|---------------------------|-------------------| 

    E E  E E  E E E  E       E E  E E  E E  E E 
e|----8--7-8----8-7--8----|----7--6-7----7--6-7-| 
B|--6---------6-----------|--5---------5--------| 
G|------------------------|---------------------| 
D|------------------------|---------------------| 
A|------------------------|---------------------| 
E|------------------------|---------------------| 
 | 
 |  Q    Q    Q   E  S  S    Q    Q    Q    Q 
e|------------------------|----------------19---| 
B|------13---12-----12-13-|-15---18---17--------| 
G|-10---------------------|---------------------| 
D|------------------------|---------------------| 
A|------------------------|---------------------| 
E|------------------------|---------------------| 

    E  E  E  E  E  E  E     E       E E E E  E E E E 
e|-----6--5--------6--5----------|----5-4-5-----------| 
B|--4--------4--4-----------4----|--3--------5-3------| 
G|-------------------------------|---------------5-4--| 
D|-------------------------------|--------------------| 
A|-------------------------------|--------------------| 
E|-------------------------------|--------------------| 
 | 
 |  E  E  E  E  E  E  S  S  S  S    H        H 
e|-20-17-17-------------------17-|-16-----------------| 
B|----------17-17----------17----|----------17--------| 
G|----------------17-14-17-------|--------------------| 
D|-------------------------------|--------------------| 
A|-------------------------------|--------------------| 
E|-------------------------------|--------------------| 

    E E  E E  E E  E E    E  E  E  E  E  E  E  S  S 
e|---------------------|----------------------------| 
B|-10---13---12--------|-10-13-12----10-13-12-12-13-| 
G|----------------13---|----------13----------------| 
D|---------------------|----------------------------| 
A|---------------------|----------------------------| 
E|---------------------|----------------------------| 
 | 
 |  E E  E E  E E  E E    E  E  E  E  E  E  E  S  S 
e|---------------------|----------------------------| 
B|---------------------|----------------------------| 
G|---------------------|----------------------------| 
D|--7---10----9--------|--7-10--9-----7-10--9--9-10-| 
A|----------------11---|----------11----------------| 
E|---------------------|----------------------------| 

    E E  E E  E E E E    E  E  E E  E  E  E E 
e|-10---13---12---9---|-10-13-12-9-10-13-12-9--| 
B|--------------------|------------------------| 
G|--------------------|------------------------| 
D|--------------------|------------------------| 
A|--------------------|------------------------| 
E|--------------------|------------------------| 
 | 
 |  E E  E E  E E E E    E  E  E E  E  E  E E 
e|--------------------|------------------------| 
B|--------------------|------------------------| 
G|--7---10----9---6---|--7-10--9-6--7-10--9-6--| 
D|--------------------|------------------------| 
A|--------------------|------------------------| 
E|--------------------|------------------------| 

   Gtr II 
    S     S  S  S  S  S  S  S  Q   Q     H.                 Q 
e|-24b25-22-24-21-23-20-22-19-21--19--|-20---------------------------|| 
B|------------------------------------|-----------------------------o|| 
G|------------------------------------|-17---------------------------|| 
D|------------------------------------|------------------------------|| 
A|------------------------------------|-----------------------------o|| 
E|------------------------------------|------------------------------|| 
 | 
 | Gtr I 
 |  S     S  S  S  S  S  S  S  Q   Q     E   E  E  E  E  E  E  E 
e|------------------------------------|-----------12----13-12--------|| 
B|------------------------------------|-----15-13----15-------------o|| 
G|-22----19-20-18-20-17-19-16-18--16--|-14--------------------13-----|| 
D|------------------------------------|------------------------------|| 
A|------------------------------------|-----------------------------o|| 
E|------------------------------------|------------------------------|| 
 
  

cifra enviadasem correções
enviado porenviada por:fernsantana
top 5 | misc computer games
top diversos
Outras músicas do artista letras do(a) Misc Computer Games
Top cifras »Top artistas »
Petaxxon Comunicação Online
Cifras.com.br - Melhor e mais completo site de cifras e tablaturas do Brasil
Mais de 1 milhão de acordes de músicas cadastradas desde 2003
As informações contidas no nosso site são colaborações de seus usuários e podem conter erros, sendo assim, não nos responsabilizamos sobre nenhuma destas.
close
menos
mais
close
Cor dos acordes:

Cor da letra:

 

save
close
close
 
redimensionar