Cifras e Tablaturas
Misc Computer Games

Misc Computer Games

Crystalis - Mount Sabre

Cifras Cancelar Versão de Impressão
cifras

Misc Computer Games - Crystalis - Mount Sabre

fixar na tela  
Exibindo: vídeo-aula ver clipes redimensionar
  
 Whole Song 
     Gtr I 
     E  E  E  E  E  E  E  E    E  E  E  E  E  E  Q 
e||-------12----13----12----|-13----12----13----12--| 
B||o---10----10----10----10-|----10----10----10-----| 
G||-------------------------|-----------------------| 
D||-------------------------|-----------------------| 
A||o------------------------|-----------------------| 
E||-------------------------|-----------------------| 
| 
 |   Gtr II 
 |   E  E  E  E  E  E  E  E    E  E  E  E  E  E  Q 
e||-------------------------|-----------------------| 
B||o------13----15----13----|-15----13----15----13--| 
G||----14----14----14----14-|----14----14----14-----| 
D||-------------------------|-----------------------| 
A||o------------------------|-----------------------| 
E||-------------------------|-----------------------| 

   E  E  E  E  E  E  E  E    E  E  E  E  E  E  Q 
e|------10----12----10----|-12----10----12----10-| 
B|----8-----8-----8-----8-|-----8-----8-----8----| 
G|------------------------|----------------------| 
D|------------------------|----------------------| 
A|------------------------|----------------------| 
E|------------------------|----------------------| 
| 
 | E  E  E  E  E  E  E  E    E  E  E  E  E  E  Q 
e|------------------------|----------------------| 
B|------12----13----12----|-13----12----13----12-| 
G|---12----12----12----12-|----12----12----12----| 
D|------------------------|----------------------| 
A|------------------------|----------------------| 
E|------------------------|----------------------| 

    E  E  E  E  E  E  E  S  S    E  E  E  E  E  E  E  S  S 
e|----------------------------|----------------------------| 
B|-13----------13-------13-13-|-15----------15-------15-15-| 
G|----14----------14----------|----16----------16----------| 
D|-------15----------15-------|-------17----------17-------| 
A|----------15----------------|----------17----------------| 
E|----------------------------|----------------------------| 
| 
 |  W                            W 
e|----------------------------|----------------------------| 
B|----------------------------|----------------------------| 
G|----------------------------|----------------------------| 
D|----------------------------|----------------------------| 
A|----------------------------|----------------------------| 
E|----------------------------|----------------------------| 

    W                      +W 
e|----------------------|------------------------------------| 
B|-17-------------------|-(17)-------------------------------| 
G|----------------------|------------------------------------| 
D|----------------------|------------------------------------| 
A|----------------------|------------------------------------| 
E|----------------------|------------------------------------| 
| 
 |  E  E E  E E  E E  E     E   S  S E  S  S E  S  S E  S  S 
e|----------------------|------------------------------------| 
B|----------------------|------------------------------------| 
G|----14---13---12---11-|------14-14---13-13---12-12---11-11-| 
D|----------------------|------------------------------------| 
A|----------------------|------------------------------------| 
E|----------------------|------------------------------------| 

   E  E  E  S  S  E  E  E  E    Q   E  Q   E  Q 
e|------------------17-------|-------------------| 
B|---------------17----17----|-18--17------------| 
G|---17-17-14-17----------17-|--------19--17-16--| 
D|---------------------------|-------------------| 
A|---------------------------|-------------------| 
E|---------------------------|-------------------| 

   E  E  E  S  S  E  E  E  E    Q   E  E  +H 
e|------------------15-------|-------------------| 
B|---15-15-------15----15----|-----15-17-(17)----| 
G|------------16----------16-|-17----------------| 
D|---------17----------------|-------------------| 
A|---------------------------|-------------------| 
E|---------------------------|-------------------| 

   E  S  S  E  Q   E  E  E    Q.    E  +H 
e|-------------------------|------------------| 
B|---18-18-18-18--18-20-18-|-18----17-(17)----| 
G|-------------------------|------------------| 
D|-------------------------|------------------| 
A|-------------------------|------------------| 
E|-------------------------|------------------| 
| 
 | E  S  S  E  Q   E  E  E    Q.    E  +H 
e|-------------------------|------------------| 
B|---15-15-15-15--15-17-15-|------------------| 
G|-------------------------|-17----17-(17)----| 
D|-------------------------|------------------| 
A|-------------------------|------------------| 
E|-------------------------|------------------| 

    S  S  Q   Q   E  E  E   E  S  S  +S   E.  Q   S  E. 
e|------------------------|------------------------------| 
B|------------------17-18-|---17-17-(17)-17--17--17-20---| 
G|-19-19-19--19--19-------|------------------------------| 
D|------------------------|------------------------------| 
A|------------------------|------------------------------| 
E|------------------------|------------------------------| 
| 
 |  S  S  Q   Q   E  E  E   E  S  S  +S   E.  Q   S  E. 
e|------------------------|------------------------------| 
B|---------------------15-|----------------------17-20---| 
G|-15-15-15--15--15-17----|------------------------------| 
D|------------------------|---18-18-(18)-18--18----------| 
A|------------------------|------------------------------| 
E|------------------------|------------------------------| 

    E.  S  +E   E  E.  S  +E   E    S  S  E  +H. 
e|-------------------------------|--------------------| 
B|-------------------------------|--------------------| 
G|-----17-(17)-16-19--17-(17)-16-|-17-16--------------| 
D|-19----------------------------|-------19-(19)------| 
A|-------------------------------|--------------------| 
E|-------------------------------|--------------------| 

    E.  S  +E   E  E.  S  +E   E    S  S  E  +H. 
e|-------------------------------|------------------| 
B|-------------------------------|-------17-(17)----| 
G|-----17-(17)-16-19--17-(17)-16-|-17-19------------| 
D|-19----------------------------|------------------| 
A|-------------------------------|------------------| 
E|-------------------------------|------------------| 

                 |--3--|                 |--3--| 
    E  Q   S  S  Q  Q  Q    E  Q   S  S  Q  Q  Q 
e|-----------------------|-----------------------| 
B|-----------------------|----17-----17-18-17----| 
G|----17--16-17-19-17-16-|-17-----19----------19-| 
D|-19--------------------|-----------------------| 
A|-----------------------|-----------------------| 
E|-----------------------|-----------------------| 
 | 
 |               |--3--|                 |--3--| 
 |  E  Q   S  S  Q  Q  Q    E  Q   S  S  Q  Q  Q 
e|-----------------------|-----------------------| 
B|-----------------------|-----------------------| 
G|--------------16-------|----17--16-17-19-17-16-| 
D|-19-19--17-19----19-17-|-19--------------------| 
A|-----------------------|-----------------------| 
E|-----------------------|-----------------------| 

    W                   Q   Q   Q   Q 
e|-------------------|------------------|| 
B|-17----------------|-----18--17------o|| 
G|-------------------|-------------19---|| 
D|-------------------|-18---------------|| 
A|-------------------|-----------------o|| 
E|-------------------|------------------|| 
| 
 |  S  S  E  +H.        Q   Q   Q   Q 
e|-------------------|------------------|| 
B|-17----------------|-----------------o|| 
G|----19-16-(16)-----|-----19--17-------|| 
D|-------------------|-------------18---|| 
A|-------------------|-19--------------o|| 
E|-------------------|------------------|| 

************************************ 
Duration Legend 

   W    whole 
   H    half 
   Q    quarter 
   E    8th 
   S    16th 
   T    32nd 
|--3--| Triplets 

************************************ 

| (n)  Ghost note    

************************************ 
  

cifra enviadasem correções
enviado porenviada por:marcnagel
top 5 | misc computer games
top diversos
Outras músicas do artista letras do(a) Misc Computer Games
Top cifras »Top artistas »
Petaxxon Comunicação Online
Cifras.com.br - Melhor e mais completo site de cifras e tablaturas do Brasil
Mais de 1 milhão de acordes de músicas cadastradas desde 2003
As informações contidas no nosso site são colaborações de seus usuários e podem conter erros, sendo assim, não nos responsabilizamos sobre nenhuma destas.
close
menos
mais
close
Cor dos acordes:

Cor da letra:

 

save
close
close
 
redimensionar