Cifras e Tablaturas
Misc Computer Games

Misc Computer Games

Crystalis - Shyron Town

Cifras Cancelar Versão de Impressão
cifras

Misc Computer Games - Crystalis - Shyron Town

fixar na tela  
Exibindo: vídeo-aula ver clipes redimensionar
  
Whole Song 

     Gtr I 
      Q   Q   Q   Q      E   E  Q  Q   Q 
e||------------------|--------------------| 
B||o-----------------|--------------------| 
G||----------10---9--|--10--12-10--9--10--| 
D||------12----------|--------------------| 
A||o-12--------------|--------------------| 
E||------------------|--------------------| 
 | 
 |   Gtr II 
 |    H       Q   Q     +Q      H      Q 
e||------------------|--------------------| 
B||o---------10------|--------------------| 
G||--------------12--|-(12)---------------| 
D||------------------|---------11-----12--| 
A||o-----------------|--------------------| 
E||------------------|--------------------| 

    E  E  Q   Q   E  E     E   E  Q   Q   Q 
e|---------------------|--------------------| 
B|----10-11------10-11-|--10----------------| 
G|-12--------12--------|------12-10---9--10-| 
D|---------------------|--------------------| 
A|---------------------|--------------------| 
E|---------------------|--------------------| 
 | 
 |  Q     Q   Q   Q       +Q      Q   Q   Q 
e|---------------------|--------------------| 
B|---------------------|--------------------| 
G|---------------------|--------------------| 
D|---------------------|---------10--11--12-| 
A|-13----10--13--12----|-(12)---------------| 
E|---------------------|--------------------| 

     Q    Q   Q   E  E     E   E  Q   Q   Q 
e|---------------------|---------------------| 
B|-------10---------10-|---------------------| 
G|--12-------10--12----|--12--10--9----------| 
D|---------------------|-------------11--12--| 
A|---------------------|---------------------| 
E|---------------------|---------------------| 
 | 
 |  +H        Q   Q       +Q      Q   Q   Q 
e|---------------------|---------------------| 
B|---------------------|---------------------| 
G|---------------------|---------------------| 
D|-(12)----------------|---------------------| 
A|---------------10----|-(10)----12----------| 
E|-----------10--------|-------------12--13--| 

     Q    Q   Q   E  E    E  E  H     Q 
e|--10-----------------|-----------------| 
B|-------13--11--10----|-------------10--| 
G|------------------12-|-10--9-----------| 
D|---------------------|-------12--------| 
A|---------------------|-----------------| 
E|---------------------|-----------------| 
 | 
 |  +H        Q   E  E    E  E  H     Q 
e|---------------------|-----------------| 
B|---------------------|-----------------| 
G|---------------------|-------------10--| 
D|-----------12--10----|-----------------| 
A|------------------13-|-12-10-----------| 
E|-(13)----------------|-------13--------| 

    +E   E  E  E  E  E  Q     +E   E  Q   E  E  T  T  E. 
e|-------------------------|-----------------------------| 
B|-(10)-10-10----10-11-13--|-(13)--------11-10-11-13-11--| 
G|------------12-----------|------12-12------------------| 
D|-------------------------|-----------------------------| 
A|-------------------------|-----------------------------| 
E|-------------------------|-----------------------------| 
 | 
 |  +E   E  E  E  E  E  Q     +Q      Q   Q     Q 
e|-------------------------|-----------------------------| 
B|-------------------------|-----------------------------| 
G|-(10)-10-10--9-10-12-12--|-(12)-----9---9----12--------| 
D|-------------------------|-----------------------------| 
A|-------------------------|-----------------------------| 
E|-------------------------|-----------------------------| 

    +E   E  E  E  E  E  Q     +Q    H     Q 
e|-------------------------|------------------| 
B|-(11)-11-11-10-----------|------------------| 
G|---------------12-10-12--|-(12)---9----10---| 
D|-------------------------|------------------| 
A|-------------------------|------------------| 
E|-------------------------|------------------| 
 | 
 |  +E   E  Q     Q     Q     +Q    H     Q 
e|-------------------------|------------------| 
B|-------------------------|------------------| 
G|-(12)-12-12----12-----9--|--(9)--------10---| 
D|-------------------------|-------10---------| 
A|-------------------------|------------------| 
E|-------------------------|------------------| 

    E  E  Q   Q   Q     +E   E  Q   Q   Q 
e|-------------------|---------------------| 
B|-----------10------|---------------------| 
G|-------10------12--|-(12)----------------| 
D|-11-12-------------|-------------13--12--| 
A|-------------------|------13-12----------| 
E|-------------------|---------------------| 
 | 
 |  E  E  Q   Q   Q     +E   E  Q   Q   Q 
e|-------------------|---------------------| 
B|-----------10------|---------------------| 
G|-------10------12--|-(12)----------------| 
D|-11-12-------------|-------------13--12--| 
A|-------------------|------13-12----------| 
E|-------------------|---------------------| 

    +E   E  Q   Q   Q     +Q    H. 
e|---------------------|---------------|| 
B|---------------------|--------------o|| 
G|---------------------|---------------|| 
D|-(12)--------12--11--|-(11)----------|| 
A|------11-10----------|-------12-----o|| 
E|---------------------|---------------|| 
 | 
 |  +E   E  Q   Q   Q     +Q    H. 
e|---------------------|---------------|| 
B|---------------------|--------------o|| 
G|---------------------|---------------|| 
D|-(12)--------12--11--|-(11)----------|| 
A|------11-10----------|-------12-----o|| 
E|---------------------|---------------|| 


************************************ 
Duration Legend 

W - whole 
H - half 
Q - quarter 
E - 8th 
S - 16th 
T - 32nd 

************************************ 

| (n)  Ghost note 

************************************ 
  

cifra enviadasem correções
enviado porenviada por:ang-letra
top 5 | misc computer games
top diversos
Outras músicas do artista letras do(a) Misc Computer Games
Top cifras »Top artistas »
Petaxxon Comunicação Online
Cifras.com.br - Melhor e mais completo site de cifras e tablaturas do Brasil
Mais de 1 milhão de acordes de músicas cadastradas desde 2003
As informações contidas no nosso site são colaborações de seus usuários e podem conter erros, sendo assim, não nos responsabilizamos sobre nenhuma destas.
close
menos
mais
close
Cor dos acordes:

Cor da letra:

 

save
close
close
 
redimensionar