Cifras e Tablaturas
Misc Computer Games

Misc Computer Games

Dream Land Theme

Cifras Cancelar Versão de Impressão
cifras

Misc Computer Games - Dream Land Theme

fixar na tela  
Exibindo: vídeo-aula ver clipes redimensionar
  
Intro 
e|--------------------------------|--------------------------------| 
B|8-------6-----------------------|------------6-------------------| 
G|------------8---7---------------|5---7---8-------7---------------| 
D|--------------------8---5-------|--------------------------------| 
A|--------------------------------|--------------------------------| 
E|--------------------------------|--------------------------------| 

A 
e|8-------------------------------|--------------------------------| 
B|----------------8---------------|--------------------------------| 
G|--------------------------------|8-------7-------5---------------| 
D|--------------------------------|--------------------------------| 
A|--------------------------------|--------------------------------| 
E|--------------------------------|--------------------------------| 

e|--------------------------------|--------------------------------| 
B|--------------------------------|--------------------------------| 
G|5-------7-------8-------5-------|--------5-----------------------| 
D|--------------------------------|8---------------5---------------| 
A|--------------------------------|--------------------------------| 
E|--------------------------------|--------------------------------| 

e|8-------------------------------|--------------------------------| 
B|----------------8---------------|--------------------------------| 
G|--------------------------------|8-------7-------5-------5---7---| 
D|--------------------------------|--------------------------------| 
A|--------------------------------|--------------------------------| 
E|--------------------------------|--------------------------------| 

e|--------------------------------|--------------------------------| 
B|--------6-----------------------|--------------------------------| 
G|8---------------7---------------|5---------------5---------------| 
D|------------------------8-------|--------5-----------------------| 
A|--------------------------------|--------------------------------| 
E|--------------------------------|--------------------------------| 

e|8-------------------------------|--------------------------------| 
B|----------------8---------------|--------------------------------| 
G|--------------------------------|8-------7-------5---------------| 
D|--------------------------------|--------------------------------| 
A|--------------------------------|--------------------------------| 
E|--------------------------------|--------------------------------| 

e|--------------------------------|--------------------------------| 
B|--------------------------------|--------------------------------| 
G|5-------7-------8-------5-------|--------5-----------------------| 
D|--------------------------------|8---------------5---------------| 
A|--------------------------------|--------------------------------| 
E|--------------------------------|--------------------------------| 

e|8-------------------------------|--------------------------------| 
B|----------------8---------------|--------6-------8---------------| 
G|--------------------------------|8-----------------------5-------| 
D|--------------------------------|--------------------------------| 
A|--------------------------------|--------------------------------| 
E|--------------------------------|--------------------------------| 

e|--------------------------------|--------------------------------| 
B|--------6-----------------------|--------------------------------| 
G|7---------------7---------------|5-------------------------------| 
D|------------------------8-------|--------------------------------| 
A|--------------------------------|--------------------------------| 
E|--------------------------------|--------------------------------| 

B 
e|--------------------------------|--------------------------------| 
B|--------------------------------|--------------------------------| 
G|--------------------------------|--------------------------------| 
D|--------------------------------|1-------0-----------------------| 
A|------------------------3-------|----------------3---------------| 
E|1-------1-------4---------------|------------------------3-------| 

e|--------------------------------|--------------------------------| 
B|--------------------------------|--------------------------------| 
G|--------------------------------|----------------0---------------| 
D|--------------------------------|1-------3-----------------------| 
A|------------------------3-------|--------------------------------| 
E|1-------1-------4---------------|--------------------------------| 

e|--------------------------------|--------------------------------| 
B|9-----------8---6-----------6---|8---------------8---------------| 
G|------------------------8-------|--------5-----------------------| 
D|--------------------------------|--------------------------------| 
A|--------------------------------|--------------------------------| 
E|--------------------------------|--------------------------------| 

e|--------------------------------|--------------------------------| 
B|6-----6-6-------------------6---|--------6-------8---------------| 
G|------------8---7-------8-------|8-----------------------8-------| 
D|--------------------------------|--------------------------------| 
A|--------------------------------|--------------------------------| 
E|--------------------------------|--------------------------------| 

e|--------------------------------|--------------------------------| 
B|--------------------------------|--------------------------------| 
G|--------------------------------|--------------------------------| 
D|--------------------------------|1-------0-----------------------| 
A|------------------------3-------|----------------3---------------| 
E|1-------1-------4---------------|------------------------3-------| 

e|--------------------------------|--------------------------------| 
B|--------------------------------|--------------------------------| 
G|--------------------------------|----------------0---------------| 
D|--------------------------------|1-------3-----------------------| 
A|------------------------3-------|--------------------------------| 
E|1-------1-------4---------------|--------------------------------| 

e|----------------------------6---|8-------------------------------| 
B|9-----------8---6-------9-------|--------8-----------------------| 
G|--------------------------------|----------------8-------5-------| 
D|--------------------------------|--------------------------------| 
A|--------------------------------|--------------------------------| 
E|--------------------------------|--------------------------------| 

e|--------------------------------|--------------------------------| 
B|------------6-------------------|--------------------------------| 
G|7-----7-7-------7---------------|5-------------------------------| 
D|--------------------8---5---8---|--------------------------------| 
A|--------------------------------|--------------------------------| 
E|--------------------------------|--------------------------------| 

C1 
e|--------------------------------|--------------------------------| 
B|------------6---8---8-8-6-------|--------------------------------| 
G|8---8-8-8-------------------8---|7---7-7-7---8---7-----------8-7-| 
D|--------------------------------|--------------------------------| 
A|--------------------------------|--------------------------------| 
E|--------------------------------|--------------------------------| 

e|--------------------------------|--------------------------------| 
B|--------------------------------|--------------------------------| 
G|5---5-5-5---7---8---8---7---5---|------------5---7-----------5-8-| 
D|--------------------------------|8---8-8-8-----------------------| 
A|--------------------------------|--------------------------------| 
E|--------------------------------|--------------------------------| 

e|--------------------------------|--------------------------------| 
B|--------------------------------|----------------------------6---| 
G|----------------5---5-5---------|------5-8-------8---------------| 
D|6---6-6-6---8-----------8---6---|5---5-------------------8-------| 
A|--------------------------------|--------------------------------| 
E|--------------------------------|--------------------------------| 

e|--------------------------------|--------------------------------| 
B|------------6---7---7-7-9---7---|6---6-6-6---7---6-----------8-6-| 
G|8---8-8-8-----------------------|--------------------------------| 
D|--------------------------------|--------------------------------| 
A|--------------------------------|--------------------------------| 
E|--------------------------------|--------------------------------| 

C2 
e|--------------------------------|--------------------------------| 
B|------------6---8---8---6-------|--------------------------------| 
G|8---8-8-8-------------------8---|7---7-7-7---8---7-----------8-7-| 
D|--------------------------------|--------------------------------| 
A|--------------------------------|--------------------------------| 
E|--------------------------------|--------------------------------| 

e|--------------------------------|--------------------------------| 
B|--------------------------------|--------------------------------| 
G|5---5-5-5---7---8---8---7---5---|------------5---7-----------5-8-| 
D|--------------------------------|8---8-8-8-----------------------| 
A|--------------------------------|--------------------------------| 
E|--------------------------------|--------------------------------| 

e|--------------------------------|------------6-------------------| 
B|----------------------------6---|8---8-8-8-------8---8-8-6-------| 
G|----------------5---5-5-8-------|----------------------------8---| 
D|6---6-6-6---8-------------------|--------------------------------| 
A|--------------------------------|--------------------------------| 
E|--------------------------------|--------------------------------| 

e|--------------------------------|------------8---7---------------| 
B|----6---8-------6---8-------6---|----6---8-----------------------| 
G|7-----------7-----------7-------|7-------------------------------| 
D|--------------------------------|--------------------------------| 
A|--------------------------------|--------------------------------| 
E|--------------------------------|--------------------------------| 

*********************************** 

| /     Slide up 
| h     Hammer-on 
| p     Pull-off 

*********************************** 
  

cifra enviadasem correções
enviado porenviada por:aleffederico
top 5 | misc computer games
top diversos
Outras músicas do artista letras do(a) Misc Computer Games
Top cifras »Top artistas »
Petaxxon Comunicação Online
Cifras.com.br - Melhor e mais completo site de cifras e tablaturas do Brasil
Mais de 1 milhão de acordes de músicas cadastradas desde 2003
As informações contidas no nosso site são colaborações de seus usuários e podem conter erros, sendo assim, não nos responsabilizamos sobre nenhuma destas.
close
menos
mais
close
Cor dos acordes:

Cor da letra:

 

save
close
close
 
redimensionar