Cifras e Tablaturas
Misc Computer Games

Misc Computer Games

Dungreed - Frozen Time

Cifras Cancelar Versão de Impressão

Misc Computer Games - Dungreed - Frozen Time

Tom:

  			
Intro 0:00-0:11 
e|--9---7--12--9---7--12/14-9|-7h9-7---------------------| 
B|---------------------------|-------9-10--9--7----------| 
G|---------------------------|-------------------9--6h7--| 
D|---------------------------|---------------------------| 
A|---------------------------|---------------------------| 
E|---------------------------|---------------------------| 

e|---------------------------|4h6-4----------------------| 
B|---------------------------|--------6-7-6-4---2---0----| 
G|-4---9---6---4---9-/11--6--|--------------------4------| 
D|---------------------------|---------------------------| 
A|---------------------------|---------------------------| 
E|---------------------------|---------------------------| 

Piano part 0:12-0:31 
Let it ring 
e|---------------------------|---------------------------| 
B|---------------------------|---------------------------| 
G|---------------------------|---------------------------| 
D|---------------------------|---------------------------| 
A|---------------------------|------------------------7--| 
E|---5------7------9------7--|---5----7----9-------7-----| 

e|---------------------------|---------------------------| 
B|---------------------------|---------------------------| 
G|---------------------------|---------------------------| 
D|---------------------------|---------------------------| 
A|---------------------------|---------------------------| 
E|---5------7------9------7--|---5----7----9-------------| 

Main part 0:35-0:57 
e|--9---7--12--9---7--12/14-9|-7h9-7---------------------| 3x 
B|---------------------------|-------9-10--9--7----------| //played diffrently than intro 
G|---------------------------|-------------------9--6h7--| //stroke every note few times 
D|---------------------------|---------------------------| //pick it up by ear 
A|---------------------------|---------------------------|  
E|---------------------------|---------------------------| 

00:57-1:00 
Let these ring 
e|-5-7-9---7-----12-----9----| //can skip two or three 
B|---------------------------| //first notes 
G|---------------------------|  
D|---------------------------| 
A|---------------------------| 
E|---------------------------| 

Violin? part 1:04-1:08 
e|---------------------------| 
B|---------------------------| 
G|----------6-9-6------6---/9| 
D|-4-6-7-4-------------------| 
A|---------------------------| 
E|---------------------------| 

Piano part 1:08-1:31 
Let it ring 
e|---------------------------|---------------------------| 
B|---------------------------|---------------------------| 
G|---------------------------|---------------------------| 
D|---------------------------|---------------------------| 
A|---------------------------|------------------------7--| 
E|---5------7------9------7--|---5----7----9-------7-----| 

e|---------------------------|---------------------------| 
B|---------------------------|---------------------------| 
G|---------------------------|---------------------------| 
D|---------------------------|---------------------------| 
A|---------------------------|---------------------------| 
E|---5------7------9------7--|---5----7----9-------------| 

Main part 1:32-1:52 
e|--9---7--12--9---7--12/14-9|-7h9-7---------------------| 3x 
B|---------------------------|-------9-10--9--7----------| //played diffrently than intro 
G|---------------------------|-------------------9--6h7--| //stroke every note few times 
D|---------------------------|---------------------------| //pick it up by ear 
A|---------------------------|---------------------------|  
E|---------------------------|---------------------------| 

Ending Violin 1:53-end 
e|---------------------------|---------------------------| //bending slowly first four 
B|---------------------------|-----------------7--7------| //notes by around 1/3  
G|-------------2-------------|-------4-6-7-6-7-----7-6-4-| //makes them sound better 
D|-4---6---7------2-0---0----|7-6-4---------------------7| //try bending fist note twice 
A|--------------------4---2-4|---------------------------| 
E|---------------------------|---------------------------|  

e|---------------------------|---------------------------| 
B|---------------------7-----|---------------------------| 
G|-6-7----6-4---------------7|--6---4----4--7-6----------| 
D|--------------7------------|---------7-----------------| 
A|---------------------------|---------------------------| 
E|---------------------------|---------------------------| 

*********************************** 
| h  Hammer-on 
| /  Slide up 
*********************************** 
    	
fixar
fixar inscrever-se

enviado porenviado por: LINEKERS
cifra enviadaCorrigida por: sem correções
logo top cifrasComente
ico música do artistaMúsicas deste artista
ico curtiuCurtiu?
ico destaqueDestaque
Petaxxon Comunicação Online

Cifras.com.br - Melhor e mais completo site de cifras e tablaturas do Brasil Mais de 1 milhão de acordes de músicas cadastradas desde 2003
As informações contidas no nosso site são colaborações de seus usuários e podem conter erros, sendo assim, não nos responsabilizamos sobre nenhuma destas.

close
menos
mais
close
Cor dos acordes:

Cor da letra:

close
Alinhar acordes a direita Alinhar acordes a esquerda Alinhar acordes em baixo Alinhar acordes no topo
close
  Mostrar todos os acordes Esconder acordes muito fáceis Esconder acordes fáceis Esconder acordes intermediários
redimensionar
glossário