Cifras e Tablaturas
Misc Computer Games

Misc Computer Games

Gremlins 2 - Stage 5

Cifras Cancelar Versão de Impressão

Misc Computer Games - Gremlins 2 - Stage 5

Tom: E

  			

Gtr I (E A D G B E) 

  Q=150 
  Gtr I 
  E Q  +E  H      E Q  +E  H      E Q  +E  H      E Q  +E  H 
|---------------|---------------|---------------|---------------| 
|---------------|---------------|---------------|---------------| 
|---------------|---------------|---------------|---------------| 
|---------------|---------------|---------------|---------------| 
|-3-3--(3)------|-4-4--(4)------|-3-3--(3)------|-6-6--(6)------| 
|-3-3--(3)------|-4-4--(4)------|-3-3--(3)------|-6-6--(6)------| 


  E Q  +E  H      E Q  +E  H      E Q  +E  H      E Q  +E  H 
|---------------|---------------|---------------|---------------| 
|---------------|---------------|---------------|---------------| 
|---------------|---------------|---------------|---------------| 
|---------------|---------------|---------------|---------------| 
|-3-3--(3)------|-4-4--(4)------|-3-3--(3)------|-6-6--(6)------| 
|-3-3--(3)------|-4-4--(4)------|-3-3--(3)------|-6-6--(6)------| 


  E E E E E E E E   E +E  E +E  E E +E  E 
|-----------------|-----------------------| 
|-----------------|-----------------------| 
|-----------------|-----------------------| 
|-5---------------|-5-----6-----8-6-(6)---| 
|---6-3-------3-6-|-6-(6)-6-(6)-6-6-(6)---| 
|-------3-2-3-----|-----------------------| 


  E E E E E E E E   E +E  E +E  E E +E  E 
|-----------------|-----------------------| 
|-----------------|-----------------------| 
|-----------------|-------------3-1-(1)---| 
|-5-3-----------4-|-5-----6---------------| 
|-----5-2---2-5---|-----------------------| 
|---------3-------|-7-(7)-7-(7)-3-3-(3)---| 


  E E E E E E E E   E +E  E +E  E E +E  E   E E E E E E E E   E E E E E E E E 
|-----------------|-----------------------|-----------------|-----------------| 
|-----------------|-----------------------|-----------------|-----------------| 
|-----------------|-----------------------|-----------------|-----------------| 
|-5---------------|-5-----6-----8-6-(6)---|-5-3-----------4-|-----------------| 
|---6-3-------3-6-|-6-(6)-6-(6)-6-6-(6)---|-----5-2---2-5---|-3-3-2-----------| 
|-------3-2-3-----|-----------------------|---------3-------|-------6-5-4-3-3-| 


   E  E  E  E  E  E  E  E    E  E  E  E  E  E  E  E 
|-------------------------|-------------------------| 
|-------------------------|-------------------------| 
|-------------------------|-------------------------| 
|-10-12-13-10-12-13-10-12-|-13-10-12-13-10-12-13-10-| 
|-------------------------|-------------------------| 
|-------------------------|-------------------------| 


   E  E  E  E  E  E  E  E    E  E  E  E  E  E  E  E 
|-------------------------|-------------------------| 
|-------------------------|-------------------------| 
|-------10-------10-12-13-|-12-10-------------------| 
|-12-13----12-13----------|-------13-12-10----------| 
|-------------------------|----------------14-12-14-| 
|-------------------------|-------------------------| 


   E  E  E  E  E  E  E  E    E  E  E  E  E  E  E  E 
|-------------------------|-------------------------| 
|-------------------------|-------------------------| 
|-------------------------|-------------------------| 
|-10-12-13-10-12-13-10-12-|-13-10-12-13-10-12-13-10-| 
|-------------------------|-------------------------| 
|-------------------------|-------------------------| 


   E  E  E  E  E  E  E  E    E  E  E  E  E  E  E  E 
|-------------------------|-------------------------| 
|-------------------------|-------------------------| 
|-------10-------10-12-13-|-12-10-------------------| 
|-12-13----12-13----------|-------13-12-10----------| 
|-------------------------|----------------14-12-14-| 
|-------------------------|-------------------------| 
    	
fixar
fixar inscrever-se

enviado porenviado por: PAULLET3
cifra enviadaCorrigida por: sem correções
logo top cifrasComente
ico música do artistaMúsicas deste artista
ico curtiuCurtiu?
ico destaqueDestaque
Petaxxon Comunicação Online

Cifras.com.br - Melhor e mais completo site de cifras e tablaturas do Brasil Mais de 1 milhão de acordes de músicas cadastradas desde 2003
As informações contidas no nosso site são colaborações de seus usuários e podem conter erros, sendo assim, não nos responsabilizamos sobre nenhuma destas.

close
menos
mais
close
Cor dos acordes:

Cor da letra:

close
Alinhar acordes a direita Alinhar acordes a esquerda Alinhar acordes em baixo Alinhar acordes no topo
close
  Mostrar todos os acordes Esconder acordes muito fáceis Esconder acordes fáceis Esconder acordes intermediários
redimensionar
glossário