Cifras e Tablaturas
Misc Computer Games

Misc Computer Games

Kingdom Hearts 2 - Roxas Theme With Battle Theme

Cifras Cancelar Versão de Impressão
cifras

Misc Computer Games - Kingdom Hearts 2 - Roxas Theme With Battle Theme

fixar na tela  
Exibindo: vídeo-aula ver clipes redimensionar

Tom:

  
Intro 

0:00  
e|---0---------0--------0-----1---------1--------1------| 
B|------------------------------------------------------| 
G|-------2--0-----2--0-----2------2--0-----2--0-----2---| 
D|----------------------------0-------------------------| 
A|---0--------------------------------------------------| 
E|------------------------------------------------------| 


Main Melody 

0:09  
e|---1--------1--0--------------------------------------1-| 
B|---------3---------------3-1----1------------1-3----1---| 
G|-------2-------2---------3---3--2----------3--------0---| 
D|---0--------------------------------3------0------------| 
A|--------------------------------------------------------| 
E|--------------------------------------------------------| 

0:21 
e|--------------------0-----| 
B|------------1--3----------| 
G|---3--2--3-----3----------| 
D|---3----------------------| 
A|--------------------------| 
E|--------------------------| 

0:25 
e|---1--------1--0--------------------------------------1-| 
B|---------3---------------3-1----1------------1-3----1---| 
G|-------2-------2---------3---3--2----------3--------2---| 
D|---0--------------------------------3------3------------| 
A|--------------------------------------------------------| 
E|--------------------------------------------------------| 

0:37 
e|--------------------0-----| 
B|------------1--3----------| 
G|---3--2--3-----3----------| 
D|---1----------------------| 
A|--------------------------| 
E|--------------------------| 

0:41 
e|-----3-5---3--------------------------| 
B|---6-----6-----6-5----3---------------| 
G|---5---------------------2------------| 
D|----------------------0-------3----0--| 
A|--------------------------------------| 
E|--------------------------------------| 

At this point you can loop back to the beginning or bring the melody into his battle theme (The Other Promise) 


e|---0---------0--------0-----1---------1--------1------| 
B|------------------------------------------------------| 
G|-------2--0-----2--0-----2------2--0-----2--0-----2---| 
D|----------------------------0-------------------------| 
A|---0--------------------------------------------------| 
E|------------------------------------------------------| 


e|----------------------------------------------------| 
B|--6--8--5-----6--8--5--6-------------------5--6-----| 
G|--------5--------5-----5-----5----------7-----7-----| 
D|--0-----------------------------8--5----0-----------| 
A|-----------------------------0----------------------| 
E|----------------------------------------------------| 

e|----------------------------------------------------------------| 
B|--6-----6-5----------------------------6------------------5-----| 
G|--7------------7-5----5---------5-7-5-------------5-7-5-7-7-----| 
D|-----0---------8----8--------8------8------8-7-8----8---0-------| 
A|------------------------8----8-------------8---8----------------| 
E|----------------------------------------------------------------| 

e|---------------------------------------------------------5-----------------| 
B|--6-------------------------------6-------------5----6-8---6-8---6-5-------| 
G|--7-------------------------5-7-5-----------5-7------7-------7-------7-----| 
D|----7-5--------8-7-5------8-----7-----8-7-8--------------------------7-----| 
A|------7----8-8-------8-----------------------------------------------------| 
E|----------------------(8-6)------------------------------------------------| 

e|--------------------------------------------------------| 
B|------5-6-----5-6--5---5-6-8-6-5------5-6---8-6-5-------| 
G|--5/7-------7------7-7-----5--------7-------------7-----| 
D|--0---------0--------------------7----------0-----------| 
A|---------------------------------0----------------------| 
E|--------------------------------------------------------| 

e|--------12-13------12-13--12----12-13-15-13-12----------12-13---15-13-12----------| 
B|--12/15----15---15----15-----15-------13-------13----15----15---13-------15-------| 
G|-----------------------------------------------15------------------------14-------| 
D|----------------------------------------------------------------------------------| 
A|----------------------------------------------------------------------------------| 
E|----------------------------------------------------------------------------------| 

e|--13-----13-12----10----------------------10----13------------10-12----| 
B|------10-------------13-11-13-------11-13----13------11-10-11----------| 
G|------------12----12----------10----0--------10------0-----------------| 
D|--0--------------------------------------------------------------------| 
A|-----------------------------------------------------------------------| 
E|-----------------------------------------------------------------------| 

e|--13-----13-12----10----------------------10----13----------------10----10--12----| 
B|------10-------------13-11-13-------11-13----13------11-10-11-13-----13-----------| 
G|-------------0----0--------12--10------------12------0------------10--------------| 
D|--0-------------------------------------------------------------------------------| 
A|----------------------------------------------------------------------------------| 
E|----------------------------------------------------------------------------------| 

e|--10-12-13----10-12-13-12-10--------13-12-10-----------------| 
B|-----------------------10----10--------------10-8------------| 
G|--0-----------------------------------------------10---------| 
D|------------------------------------------------------7------| 
A|-------------------------------------------------------------| 
E|-------------------------------------------------------------| 

e|---1---------1--------1-----0---------0--------0-------1---| 
B|-------------------------------------------------------3---| 
G|-------2--0-----2--0-----2------2--0-----2--0-----2----2---| 
D|---0------------------------0------------------------------| 
A|-----------------------------------------------------------| 
E|-----------------------------------------------------------| 



************************************ 

| /  Slide up 
| () Ghost note   

************************************ 
  

top 5 | misc computer games
top diversos
Outras músicas do artista letras do(a) Misc Computer Games
Top cifras »Top artistas »
Petaxxon Comunicação Online
Cifras.com.br - Melhor e mais completo site de cifras e tablaturas do Brasil
Mais de 1 milhão de acordes de músicas cadastradas desde 2003
As informações contidas no nosso site são colaborações de seus usuários e podem conter erros, sendo assim, não nos responsabilizamos sobre nenhuma destas.
close
menos
mais
close
Cor dos acordes:

Cor da letra:

 

save
close
close
 
redimensionar