Cifras e Tablaturas
Misc Computer Games

Misc Computer Games

Life Is Strange - Before The Storm Main Menu Theme

Cifras Cancelar Versão de Impressão
cifras

Misc Computer Games - Life Is Strange - Before The Storm Main Menu Theme

fixar na tela  
Exibindo: vídeo-aula ver clipes redimensionar

Tom:

  
Guitar 1 
(Starts at 00:03) 
e|---------------------------------------------------------------------------| 
B|---------------------------------------------------------------------------| 
G|---------------------------------------------------------------------------| 
D|---------------------------------------------------------------------------|   
A|---------------------------------------------------------------------------| 
E|-4-4/6-6----6/13-13-13-9-9-9-9-11-13-11\4-4-6-6----6/13-13-13-9-9-9-9-11---| 

e|---------------------------------------------------------------------------| 
B|---------------------------------------------------------------------------| 
G|---------------------------------------------------------------------------| 
D|---------------------------------------------------------------------------| 
A|---------------------------------------------------------------------------| 
E|-13\4-4-6-6----6/13-13-13-9-9-9-9-11-13-11-11\4-2--------------------------| 

e|---------------------------------------------------------------------------| 
B|---------------------------------------------------------------------------| 
G|---------------------------------------------------------------------------| 
D|-1-3-3-1-3-3---1-3/4/3-1---------------------------------------------------| x2 
A|-------------------------4-------------------------------------------------| 
E|---------------------------------------------------------------------------| 

e|---------------------------------------------------------------------------| 
B|-4-6-6-4-6-6---4-6/7/6-4-6-6---4-6-6-4-6-6---4-6/7/6-4-2-2-----------------| 
G|---------------------------------------------------------------------------| 
D|---------------------------------------------------------------------------| x2 
A|---------------------------------------------------------------------------| 
E|---------------------------------------------------------------------------| 

e|---------------------------------------------------------------------------| 
B|---------------------------------------------------------------------------| 
G|-6-8-6-8---6\5-6\5--------6-8-6-8---6\5-6\5--------6-8-6-8---6\5-6\5-------| 
D|---------------------------------------------------------------------------| 
A|--------------------6-8----------------------6-8----------------------6-8--| 
E|---------------------------------------------------------------------------| 

e|---------------------------------------------------------------------------| 
B|---------------------------------------------------------------------------| 
G|-6-8-6-8---6\5-6\5---------------------------------------------------------| 
D|---------------------------------------------------------------------------| 
A|--------------------6\4----------------------------------------------------| 
E|---------------------------------------------------------------------------| 

Guitar 2 
(starts at 00:10) 
e|---------------------------------------------------------------------------| 
B|---------------------------------------------------------------------------| 
G|---------------------------------------------------------------------------| 
D|-6-6-6-6/10-10-10--------6-6-6-6/10-10-11-11--------6-6-6-6/10-10-11-11----| 
A|-----------------6-4-4-----------------------6-6-----------------------6-4-| 
E|---------------------------------------------------------------------------| 

(starts at 00:57) 
e|---------------------------------------------------------------------------| 
B|---------------------------------------------------------------------------| 
G|---------------------------------------------------------------------------| 
D|-3-3-3------------------------3-3-3----------------------------------------| x2 
A|-------4-4-4-4-6-8\4----------------4-4-4-4-6-8\4----4-4-------------------| 
E|--------------------4-4-6-6----------------------4-4-----------------------| 


************************************ 

| /   Slide up 
| \   Slide down 

************************************ 
  

top 5 | misc computer games
top diversos
Outras músicas do artista letras do(a) Misc Computer Games
Top cifras »Top artistas »
Petaxxon Comunicação Online
Cifras.com.br - Melhor e mais completo site de cifras e tablaturas do Brasil
Mais de 1 milhão de acordes de músicas cadastradas desde 2003
As informações contidas no nosso site são colaborações de seus usuários e podem conter erros, sendo assim, não nos responsabilizamos sobre nenhuma destas.
close
menos
mais
close
Cor dos acordes:

Cor da letra:

 

save
close
close
 
redimensionar