Cifras e Tablaturas
Misc Computer Games

Misc Computer Games

Life Is Strange - Menu Theme

Cifras Cancelar Versão de Impressão
cifras

Misc Computer Games - Life Is Strange - Menu Theme

fixar na tela  
Exibindo: vídeo-aula ver clipes redimensionar
  
Intro 
e|-0---0---0---0---|-0---0---0---0---| 
B|---1---1---1---1-|---1---1---1-----| 
G|-----------------|---------------0-| 
D|-----------------|-----------------| 
A|-----------------|-----------------| 
E|-----------------|-----------------| 

Verse 
   C                                    
e|-----------------|-----------------|-----------------|-----------------| 
B|-1---1-0---1---1-|(1)--------------|-1---1-0---1---1-|(1)--------------| 
G|-0---0-0---0---0-|(0)--------------|-0---0-0---0---0-|(0)--------------| 
D|-----------------|-----0---2-------|-----------------|-----0---2-------| 
A|-3-3-----3---3---|-------------3---|-3-3-----3---3---|-------------3---| 
E|-----------------|-----------------|-----------------|-----------------| 

   G                                   C                                   
e|-----------------|-----------------|-----------------|-----------------| 
B|-0---0-----0---0-|(0)--------------|-1---1-0---1---1-|(0)--------------| 
G|-2---2-2---2---2-|(2)--------------|-0---0-0---0---0-|(1)--------------| 
D|-------0---------|-----0---2-------|-----------------|-----0---2-------| 
A|-----------------|-------------3---|-3-3-----3---3---|-------------3---| 
E|-3-3-----3---3---|-----------------|-----------------|-----------------| 

Chorus 
   Am 
e|-0---------------|-----------------|-----------------|-----------------| 
B|-1-------1---0---|(0)--------------|-----------------|-----------------| 
G|-2-------2---2---|(2)--2-------0---|(0)--------------|-----------------| 
D|-----------------|-----2-------0---|(0)----------2---|(2)--------------| 
A|-0---------------|-----------------|---------2---3---|(3)--------------| 
E|-----------------|-----------------|-----------------|-----------------| 

e|-0---------------|-------------0---|(0)--------------| 
B|-1-------1---0---|(0)----------1---|(1)--------------| 
G|-2-------2---0---|(0)--0-------2---|(2)--------------| 
D|-----------------|-----0-------2---|(2)--------------| 
A|-0---------------|-----------------|-----------------| 
E|-----------------|-----------------|-----------------| 

e|-0---------------|-----------------|-----------------|-----------------| 
B|-1-------1---0---|(0)--------------|-----------------|-----------------| 
G|-2-------2---2---|(2)--2-------0---|(0)--------------|-----------------| 
D|-----------------|-----2-------0---|(0)----------2---|(2)--------------| 
A|-0---------------|-----------------|---------2---3---|(3)--------------| 
E|-----------------|-----------------|-----------------|-----------------| 

e|-----------------|-----------------|-----1-----------|-0---------------| 
B|-----------------|-----0-----------|-----1-----------|-1---------------| 
G|-----------------|-----2-----------|-0---0-----------|-2---------------| 
D|-2-----------3---|(3)--------------|-----------------|-2---------------| 
A|-3---3-----------|-----------------|-----------------|-----------------| 
E|-----------------|-----------------|-----------------|-----------------| 



************************************ 

| (n)  Ghost note 

************************************ 
  

cifra enviadasem correções
enviado porenviada por:joaoewerton
top 5 | misc computer games
top diversos
Outras músicas do artista letras do(a) Misc Computer Games
Top cifras »Top artistas »
Petaxxon Comunicação Online
Cifras.com.br - Melhor e mais completo site de cifras e tablaturas do Brasil
Mais de 1 milhão de acordes de músicas cadastradas desde 2003
As informações contidas no nosso site são colaborações de seus usuários e podem conter erros, sendo assim, não nos responsabilizamos sobre nenhuma destas.
close
menos
mais
close
Cor dos acordes:

Cor da letra:

 

save
close
close
 
redimensionar