Cifras e Tablaturas
Misc Computer Games

Misc Computer Games

Metroid - Item Room

Cifras Cancelar Versão de Impressão
cifras

Misc Computer Games - Metroid - Item Room

fixar na tela  
Exibindo: vídeo-aula ver clipes redimensionar
  
Metroid (NES) - Item Room Theme 

Gtr I (E A D G B E) - Square Wave 

     E=300 
     Gtr I 
     Q.   E  E  E E E  E  E   Q   E  E E E  E  E Q 
e||---------18-18-----------|----17-17--------------| 
B||o------------------18-18-|-----------------------| 
G||-------------------------|--------------18-18----| 
D||-------------------------|-----------------------| 
A||o------------------------|-----------------------| 
E||-------------------------|-----------------------| 


   Q.   Q  E  E  E Q     E  E E E  E  E E E Q 
e|--------------------|-----------19-19--------| 
B|--------------------|-19-19------------------| 
G|-----------17-17----|------------------------| 
D|--------------------|------------------------| 
A|--------------------|------------------------| 
E|--------------------|------------------------| 


    E  E E E  E  E E E Q    Q.   E  E  E E E  E  E 
e|-25-25-----22-22--------|--------18-18-----------| 
B|------------------------|------------------18-18-| 
G|------------------------|------------------------| 
D|------------------------|------------------------| 
A|------------------------|------------------------| 
E|------------------------|------------------------| 


   Q   E  E E E  E  E Q    Q.   Q  E  E  E Q 
e|----17-17--------------|---------------------| 
B|-----------------------|---------------------| 
G|--------------18-18----|-----------17-17-----| 
D|-----------------------|---------------------| 
A|-----------------------|---------------------| 
E|-----------------------|---------------------| 


    E  E E E  E  E E E Q     E  E E E  E  E E E Q 
e|-----------19-19--------|-25-25-----22-22-----------|| 
B|-19-19------------------|--------------------------o|| 
G|------------------------|---------------------------|| 
D|------------------------|---------------------------|| 
A|------------------------|--------------------------o|| 
E|------------------------|---------------------------|| 
  

cifra enviadasem correções
enviado porenviada por:IronPower4Ever
top 5 | misc computer games
top diversos
Outras músicas do artista letras do(a) Misc Computer Games
Top cifras »Top artistas »
Petaxxon Comunicação Online
Cifras.com.br - Melhor e mais completo site de cifras e tablaturas do Brasil
Mais de 1 milhão de acordes de músicas cadastradas desde 2003
As informações contidas no nosso site são colaborações de seus usuários e podem conter erros, sendo assim, não nos responsabilizamos sobre nenhuma destas.
close
menos
mais
close
Cor dos acordes:

Cor da letra:

 

save
close
close
 
redimensionar