Cifras e Tablaturas
Misc Computer Games

Misc Computer Games

Mother 3 - Magypsy Party

Cifras Cancelar Versão de Impressão
cifras

Misc Computer Games - Mother 3 - Magypsy Party

fixar na tela  
Exibindo: vídeo-aula ver clipes redimensionar
  
Melody 
   C     b G   A7    G e   FM7   e C   e d   d C 
e|-----------------------------------------------| 
B|-5-~-|-3-8-|-1-~-|-0-5-|-----|---1-|-----|-----| 
G|-5-~-|-4-7-|-2-~-|-0-4-|-2-~-|-0-0-|-0---|-----| 
D|-----|-----|-----|-----|-3-~-|-2---|-2-3-|-3-2-| 
A|-----|-----|-----|-----|-----|-----|---5-|-5-3-| 
E|-----------------------------------------------| 

   e     E     b *   CM7/B G     F d   C *   G 
e|-----------------------------------------------| 
B|-----|---0-|-3-5-3|1-~-|-0-~-|---3-|-1-0-|-0-~-| 
G|-----|-1-1-|-4-~--|0-~-|-0-~-|-2-2-|-0--2|-0-~-| 
D|-2-~-|-2---|------|----|-----|-3---|-----|-----| 
A|-2-~-|-----|------|----|-----|-----|-----|-----| 
E|-----------------------------------------------| 

************************************ 
************** 

| ~  Vibrato 
| * Notes are together in rapid succession 

************************************************** 
  

cifra enviadasem correções
enviado porenviada por:IronPower4Ever
top 5 | misc computer games
top diversos
Outras músicas do artista letras do(a) Misc Computer Games
Top cifras »Top artistas »
Petaxxon Comunicação Online
Cifras.com.br - Melhor e mais completo site de cifras e tablaturas do Brasil
Mais de 1 milhão de acordes de músicas cadastradas desde 2003
As informações contidas no nosso site são colaborações de seus usuários e podem conter erros, sendo assim, não nos responsabilizamos sobre nenhuma destas.
close
menos
mais
close
Cor dos acordes:

Cor da letra:

 

save
close
close
 
redimensionar