Cifras e Tablaturas
Misc Computer Games

Misc Computer Games

Nioh - World Map Theme

Cifras Cancelar Versão de Impressão
cifras

Misc Computer Games - Nioh - World Map Theme

fixar na tela  
Exibindo: vídeo-aula ver clipes redimensionar

Tom:

  
00:13 
e ---------------------------------------------------------------------| 
B ------14-------------------------------------------------------------| 
G ---13--------16--------13--------------------------------------------| 
D ---------------- 16-------11-----13-14-13-11--------11-------11------| 
A -------------------------------------------------14------14----------| 
E ---------------------------------------------------------------------| 

00:32 
e ---------------------------------------------------------------------| 
B ------14-----------------------------------------12-14---------------| 
G ---13--------16--------13--------------------------------------------| 
D ---------------- 16-------11-----13-14-13-11----------------11-------| 
A ---------------------------------------------------------14----------| 
E ---------------------------------------------------------------------| 

00:50 
e ----------------------------------------------------------------------------------| 
B -------------------------------------------------14-------------------------------| 
G ---------------------------------------------13-----------------------------------| 
D ---14----13--11------11--11--11--13--16--15----------13--15--16--15---------------| 
A -----------------14--------------------------------------------------16--16-------| 
E ----------------------------------------------------------------------------------| 

01:14 
e ------------------------------------------------------------------------------------| 
B ---16------15-----------------------------------------------------------------------| 
G ------------------------------------------------------------------------------------| 
D ------------------------------------------------------------------------------------| 
A ------------------------------------------------------------------------------------| 
E ---------------------9--------------------------------------------------------------| 
  

top 5 | misc computer games
top diversos
Outras músicas do artista letras do(a) Misc Computer Games
Top cifras »Top artistas »
Petaxxon Comunicação Online
Cifras.com.br - Melhor e mais completo site de cifras e tablaturas do Brasil
Mais de 1 milhão de acordes de músicas cadastradas desde 2003
As informações contidas no nosso site são colaborações de seus usuários e podem conter erros, sendo assim, não nos responsabilizamos sobre nenhuma destas.
close
menos
mais
close
Cor dos acordes:

Cor da letra:

 

save
close
close
 
redimensionar