Cifras e Tablaturas
Misc Computer Games

Misc Computer Games

Outlaws Theme

Cifras Cancelar Versão de Impressão

Misc Computer Games - Outlaws Theme

Tom:

  			
E|--------------------------------------| 
B|--------------------------------------| 
G|--------------------------------------| 
D|-------------------------------5-----7| 
A|------3--7--3--5--3--0---3--7-----7---| 
E|0--5----------------------------------| 

E|------------------------------------------| 
B|------------------------------------------| 
G|------------------------------------------| 
D|7--5-----7--------------------------------| 
A|------7-----7--5--3--0--------3--2b0------| 
E|------------------------3--5----------3--5| 
    	
fixar
fixar inscrever-se

enviado porenviado por: jov-correa
cifra enviadaCorrigida por: sem correções
logo top cifrasComente
ico música do artistaMúsicas deste artista
ico curtiuCurtiu?
ico destaqueDestaque
Petaxxon Comunicação Online

Cifras.com.br - Melhor e mais completo site de cifras e tablaturas do Brasil Mais de 1 milhão de acordes de músicas cadastradas desde 2003
As informações contidas no nosso site são colaborações de seus usuários e podem conter erros, sendo assim, não nos responsabilizamos sobre nenhuma destas.

close
menos
mais
close
Cor dos acordes:

Cor da letra:

close
Alinhar acordes a direita Alinhar acordes a esquerda Alinhar acordes em baixo Alinhar acordes no topo
close
  Mostrar todos os acordes Esconder acordes muito fáceis Esconder acordes fáceis Esconder acordes intermediários
redimensionar
glossário